Misc Unsigned Bands - A Day Remains - Release Chords & Tabs

 

A Day Remains - Release Chords & Tabs

Misc Unsigned Bands Chords & Tabs

Version: 1 Type: Bass Tab

A Day Remains - Release Bass Tab

verse
---------------------------------------------------------|
---------------------------------------------------------|
------------------------8-10-8------------------8-10-8---|
00--------------00------------00--------------00------00-|

chorus
------------------------------------------------------|
------------------------------------------------------|
------------------------------------------------------|
0-6-5-0-3-5-0-3-0-3-0-6-5-3-5-0-6-5-0-3-5-0-3-0-3-0-3-|

break down
--------------------------------------------------------|
--------------------------------------------------------|
--------------------------------------------------------|
00-000-00-000-1-00-000-00--6-5-0-3-5-0-1----------------|

--------------------------------------------------------|
--------------------------------------------------------|
--------------------------------------------------------|
000-000-000-000-1-000-000-000-4-3-0-1-3-0-1-------------|
[ Tab from: http://www.guitartabs.cc/tabs/m/misc_unsigned_bands/a_day_remains_release_btab.html ]
repeat x 2
--------------------------------------------------------|
--------------------------------------------------------|
-3-5-6-5---------------------3-5-6-5--------------------|
0---0---0-6-5-0-3-0-3-0-3-5-0---0---0-6-5-0-3-0-3-------|

--------------------------------------------------------|
--------------------------------------------------------|
--------------------------------------------------------|
0---------------0---------------0---12\-----------------|

chorus
------------------------------------------------------|
------------------------------------------------------|
------------------------------------------------------|
0-6-5-0-3-5-0-3-0-3-0-6-5-3-5-0-6-5-0-3-5-0-3-0-3-0-3-|

outro
------------------------------------------------------------|
------------------------------------------------------------|
------------------------8-10-8------------------------------|
00--------------00------------00--------------00------8-7-0-|