Misc Unsigned Bands - A Buck Short - Crazy Kumon Lady Chords & Tabs

 

A Buck Short - Crazy Kumon Lady Chords & Tabs

Misc Unsigned Bands Chords & Tabs

Version: 1 Type: Tab 0 ratings
1 star 2 stars 3 stars 4 stars 5 stars
comments

A Buck Short - Crazy Kumon Lady Tab

By:the dude that plays and sings in a buc short 

during bass solo alternate back and forth .....then faster at the tempo change 
e|--------------------------------------------------------------------------| 
B|--------------------------------------------------------------------------| 
G|--------------------------------------------------------------------------| 
D|---2-----4----------------------------------------------------------------| 
A|---2-----4----------------------------------------------------------------| 
E|---0-----2----------------------------------------------------------------| 

verse: 
e|--------------------------------------------------------------------------| 
B|--------------------------------------------------------------------------| 
G|-----7--------------------------------------------------------------------| 
D|2----7-----5--------------------------------------------------------------| 
A|0----5-----5--------------------------------------------------------------| 
E|0----------7--------------------------------------------------------------| 
[ Tab from: http://www.guitartabs.cc/tabs/m/misc_unsigned_bands/a_buck_short_crazy_kumon_lady_tab.html ]
chorus: 
e|--------------------------------------------------------------------------| 
B|--------------------------------------------------------------------------| 
G|7-------------7---------------7-------------------------7-----------------| 
D|7---7----5----7---7----9------7---7----5---7----9-------7---7--5----------| 
A|5---7----5----5---7----9------5---7----5---7----9-------5---7--5----------| 
E|----5----3--------5----7----------5----3---5----7-----------5--3----------| 

"get this through your head" 
e|---------------------------------------------------------------------------| 
B|---------------------------------------------------------------------------| 
G|---------------------------------------------------------------------------| 
D|---------------------------------------------------------------------------| 
A|---------------------------------------------------------------------------| 
E|---------------------------------------------------------------------------| 

ending: do chrous then at the end do this 
e|---------------------------------------------------------------------------| 
B|---------------------------------------------------------------------------| 
G|---7-----------------------------------------------------------------------| 
D|---7----7------9----5---x4-------------------------------------------------| 
A|---5----7------9----5------------------------------------------------------| 
E|--------5------7----3------------------------------------------------------| 

beginning-verse-chorus-verse-chorus[end] if u cant figure this song out 
then you suck worse than me so good luck
Comments