Misc Unsigned Bands - A Buck Short - Crazy Kumon Lady Chords & Tabs

 

A Buck Short - Crazy Kumon Lady Chords & Tabs

Misc Unsigned Bands Chords & Tabs

Version: 1 Type: Bass Tab 0 ratings
1 star 2 stars 3 stars 4 stars 5 stars
comments

A Buck Short - Crazy Kumon Lady Bass Tab

Intro(solo) 
G|---------------------------------------------------------------------| 
D|---------------------------------------------------------------------| 
A|---------------------------------------------------------------------| 
E|---2-2-2-2-2-2-2-2-0-0-0-0-0-0-0-0-----------------------------------| 

After solo thing 
G|---------------------------------------------------------------------| 
D|---------------------------------------------------------------------| 
A|---------------------------------------------------------------------| 
E|---22-00-22-00-22-00-22-00-------------------------------------------| 

After solo thing cont.(faster) 
G|---------------------------------------------------------------------| 
D|---------------------------------------------------------------------| 
A|---------------------------------------------------------------------| 
E|---22-00-22-00-22-00-22-00-222222222222------------------------------| 

Verse 
G|---------------------------------------------------------------------| 
D|---------------------------------------------------------------------| 
A|--------5----------5---------5---------5-----------------------------| 
E|---0000--5----0000--5---0000--5---0000--5----------------------------| 
[ Tab from: http://www.guitartabs.cc/tabs/m/misc_unsigned_bands/a_buck_short_crazy_kumon_lady_btab.html ]
2nd verse 
G|---------------------------------------------------------------------| 
D|---------------------------------------------------------------------| 
A|--------5---------5---------5---------5---------5--------------------| 
E|---0000--5---0000--5---0000--5---0000--5---0000--5-------------------| 

Chorus 
G|---------------------------------------------------------------------| 
D|---------------------------------------------------------------------| 
A|----5555--------------5555--------------5555--------------5555-------| 
E|--------5555-33333333-----5555-77777777-----5555-3-5-7777-----5555---| 

Chorus cont. 
G|---------------------------------------------------------------------| 
D|---------------------------------------------------------------------| 
A|---------------------------------------------------------------------| 
E|---33333-------------------------------------------------------------| 

End 
G|---------------------------------------------------------------------| 
D|---------------------------------------------------------------------| 
A|----5555--------------5555--------------5555-------------------------| 
E|--------5555-33333333-----5555-77777777-----5555-3-5-7777------------| 

End cont. 
G|---------------------------------------------------------------------| 
D|---------------------------------------------------------------------| 
A|---5555---------------5555---------------5555------------------------| 
E|-------5555-7777-3333-----5555-7777-3333-----5555-7777-33333---------| 

Order: 
Intro 8x 
After solo thing 1x 
After solo thing(faster) 1x 
Verse 2x 
2nd Verse 2x 
Chorus 1x 
Chorus cont. 1x 
2nd Verse 2x 
End 1x 
End cont. 1x 

By: Mike Skowskis
Comments