Misc Unsigned Bands - 7 Weeks - Angel Chords & Tabs

 

7 Weeks - Angel Chords & Tabs

Misc Unsigned Bands Chords & Tabs

Version: 1 Type: Tab 0 ratings
1 star 2 stars 3 stars 4 stars 5 stars
comments

7 Weeks - Angel Tab

   
~::New Band - Watch out 4 these guys::~

#----------------------------------PLEASE NOTE--------------------------------#
#This file is the author's own work and represents their interpretation of the#
#song. You may only use this file for private study, scholarship, or research.#
#-----------------------------------------------------------------------------#
#-- File created with Instab - http://www.pconline.com/~smcarey/instab.html --#
#-----------------------------------------------------------------------------#

Author/Artist: 7 Weeks
Title: Angel
Album: In Desperate Times (EP)
Transcribed by: Hamed Zahory
Email: copstookmyboard@yahoo.com

----------------------|----------------------|----------------------|---------|
-5-55-xx-5-55-xx-5-xx-|-5-55-xx-5-55-xx-5-xx-|-5-55-xx-5-55-xx-5-xx-|---------|
-5-55-xx-5-55-xx-5-xx-|-5-55-xx-5-55-xx-5-xx-|-5-55-xx-5-55-xx-5-xx-|---------|
-7-77-xx-7-77-xx-7-xx-|-5-55-xx-5-55-xx-5-xx-|-3-33-xx-3-33-xx-3-xx-|---------|
-0-00----0-00----0----|-0-00----0-00----0-xx-|-0-00----0-00----0----|---------|
----------------------|----------------------|----------------------|---------|
 Guitar 1

----------------------|----------------------|--------------------------------|
----------------------|----------------------|--------------------------------|
----------------------|----------------------|--------------------------------|
----------------------|----------------------|--------------------------------|
----------------------|----------------------|--------------------------------|
----------------------|----------------------|--------------------------------|
 Guitar 2

----------------------|----------------------|----------------------|---------|
-5-55-xx-6-66-xx-3-xx-|-5-55-xx-8-88-xx-5-xx-|-5-55-xx-8-88-xx-8-xx-|---------|
-4-44-xx-4-44-xx-4-xx-|-5-55-xx-5-55-xx-5-xx-|-5-55-xx-5-55-xx-5-xx-|---------|
-3-33-xx-3-33-xx-3-xx-|-7-77-xx-7-77-xx-7-xx-|-5-55-xx-5-55-xx-5-xx-|---------|
-0-00----0-00----0----|-0-00----0-00----0----|-0-00----0-00----0----|---------|
----------------------|----------------------|----------------------|---------|
 Guitar 1
[ Tab from: http://www.guitartabs.cc/tabs/m/misc_unsigned_bands/7_weeks_angel_tab.html ]
----------------------|----------------------|----------------------|---------|
----------------------|----------------------|----------------------|---------|
----------------------|-9--------------------|-7--------------------|---------|
----------------------|-7--------------------|-5--------------------|---------|
----------------------|-0--------------------|-0--------------------|---------|
----------------------|----------------------|----------------------|---------|
 Guitar 2

----------------------|----------------------|--------------------------------|
-5-55-xx-6-66-xx-5-xx-|-5-55----6-66-33-3-3--|--------------------------------|
-5-55-xx-5-55-xx-5-xx-|-4-44----4-44-44-4-4--|--------------------------------|
-3-33-xx-3-33-xx-3-xx-|-3-33-xx-3-33-33-3-3--|--------------------------------|
-0-00----0-00----0----|-0-00----0-00-00-0-0--|--------------------------------|
----------------------|----------------------|--------------------------------|
 Guitar 1

--------|-------------------|--------------------|--------------------|-------|
--------|-------------------|--------------------|--------------------|-------|
--------|-------------------|--------------------|--------------------|-------|
--------|-3-3-3333-5-5-555--|-3-xx-2-xx-5--------|-3-xx-2-xx-3--------|-3-xx--|
-7/8-00-|-3-3-3333-3-3-5550-|-0-xx-0-xx-5-xxxxxx-|-0-xx-0-xx-3-xxxxxx-|-0-xx--|
-----00-|-1-1-1111-0-0-3330-|-----------3-xxxxxx-|-----------1-xxxxxx-|-------|
                       End>

---------------|--------------------|---------------------|-------------------|
---------------|--------------------|-1----0----1----0----|-------------------|
---------------|-2------------------|-2----2----2----2----|-------------------|
-2-xx-5--------|-3----2-------------|-2-xx-2-xx-2-xx-2-xx-|-3----2----3----2--|
-0-xx-5-xxxxxx-|---xx-3-xx-2-xxxxxx-|-0-xx-0-xx-0-xx-0-xx-|-3-xx-3-xx-3-xx-3--|
------3-xxxxxx-|---xx---xx-3-xxxxxx-|---------------------|-1-xx-1-xx-1-xx-1--|
                              End>                             End

----|--------------|--------------|--------------|--------------|-------------|
----|--------------|--------------|--------------|--------------|-------------|
----|--------------|--------------|--------------|-22-----------|-------------|
----|-33-22-5--5-5-|-33-22-3--3-3-|-33-22-5--5-5-|-33-22-0--0-0-|-1010-1010---|
-xx-|-00-00-5--5-5-|-00-00-3--3-3-|-00-00-5--5-5-|----33-2--2-2-|--8-8-1010---|
-xx-|-------3--3-3-|-------1--1-1-|-------3--3-3-|-------3--3-3-|--8-8--8-8---|
  >                                          Ending A      Ending B

---------|--------------------------------------------------------------------|
---------|--------------------------------------------------------------------|
---------|--------------------------------------------------------------------|
-7--7-7\-|--------------------------------------------------------------------|
-7--7-7\-|--------------------------------------------------------------------|
-5--5-5\-|--------------------------------------------------------------------|
Comments