Misc Unsigned Bands - 3stone - Vitial Signs Chords & Tabs

 

3stone - Vitial Signs Chords & Tabs

Misc Unsigned Bands Chords & Tabs

Version: 1 Type: Tab 0 ratings
1 star 2 stars 3 stars 4 stars 5 stars
comments

3stone - Vitial Signs Tab

This a Tab From My Band, 3Stone, I wrote this my self, and thought I should post it
somewhere to see what you people think.

"Vitial Signs"
By: 3Stone

Tuning Is In "D"
[ Tab from: http://www.guitartabs.cc/tabs/m/misc_unsigned_bands/3stone_vitial_signs_tab.html ]
|--------------------------------------------------------------|
|--------------------------------------------------------------|
|--------------------------------------------------------------|
|4-4-4--7-7-7--6-6-6--7-6-7--0-0-0-0-0-0-7-7-7-7-6-6-6-6-------| x4
|4-4-4--4-4-4--4-4-4--4-4-4--0-0-0-0-0-0-0-0-0-0-0-0-0-0-------|
|4-4-4--4-4-4--4-4-4--4-4-4--0-0-0-0-0-0-0-0-0-0-0-0-0-0-------|

|-------------------------------------------------|
|-------------------------------------------------|
|-------------------------------------------------|
|6-6-6-6-6-6-6-2-2-2-2-2-2-2-7-7-7-6-6-6-7-6-7----| x4
|6-6-6-6-6-6-6-2-2-2-2-2-2-2-4-4-4-4-4-4-4-4-4----|
|6-6-6-6-6-6-6-2-2-2-2-2-2-2-4-4-4-4-4-4-4-4-4----|
Comments