Misc Unsigned Bands - 33 West - The Same Ending Chords & Tabs

 

33 West - The Same Ending Chords & Tabs

Misc Unsigned Bands Chords & Tabs

Version: 1 Type: Tab 0 ratings
1 star 2 stars 3 stars 4 stars 5 stars
comments

33 West - The Same Ending Tab

I am 100% sure this tab is completely correct because I am friends with the bands
guitarist and he showed me exactly how it goes. Be sure to turn your overdrive at
least up to 6 or 7.


  Drop D Tuning
  
   Intro  (Palm Mute)                                  
e|------------------|
B|--------2-2-2-----|
G|--------3-3-3-----| 
D|--------2-2-2-----|
A|-2-2-2------------|
D|-2-2-2------------|
   


   Main Verse
e|----------------------------------------------------------|
B|----------------------------------------------------------|
G|----9---7---6---6----7-7-7-7-7-7-7-7--9-9-9-9-9-9-9-9-----|
D|----7---7---7---7----7-7-7-7-7-7-7-7--9-9-9-9-9-9-9-9-----|
A|----5---5---4---4----5-5-5-5-5-5-5-5--7-7-7-7-7-7-7-7-----|
D|---------------------5-5-5-5-5-5-5-5--7-7-7-7-7-7-7-7-----|



   Harmonic Riff
e|--------------------|
B|---------------7----|
G|------7-----5-------| 
D|----7---7-----------|
A|--7-----------------|
D|--------------------|
   Use all Harmonics



   Pre-Chorus
e|---------------------2------|
B|---------------------3------|
G|---------------------2------| Play 2 Times
D|--2---2-2-2--2-2-2---0------|
A|--2---2-2-2--2-2-2---0------|
D|--2---2-2-2--2-2-2---0------|
         Palm Mute  
[ Tab from: http://www.guitartabs.cc/tabs/m/misc_unsigned_bands/33_west_the_same_ending_tab.html ]
   Chorus
e|--------------------------------------------------|
B|--------------------------------------------------|
G|-11-11-11-11---11-11-11-11---9-9-9-9---7-7-7-7----|
D|-x--x--x--x----x--x--x--x----7-7-7-7---5-5-5-7----|
A|-9--9--9--9----x--x--x--x----7-7-7-7---5-5-5-5----|
D|-0--0--0--0----9--9--9--9----7-7-7-7---5-5-5-5----|


e|------------------------------------------------------------|
B|------------------------------------------------------------|
G|-11-11-11-11---11-11-11-11---9-9-9-9---7-7-7-7--6-6-6--5-5--|
D|-x--x--x--x----x--x--x--x----7-7-7-7---5-5-5-7--4-4-4--3-3--|
A|-9--9--9--9----x--x--x--x----7-7-7-7---5-5-5-5--4-4-4--3-3--|
D|-0--0--0--0----9--9--9--9----7-7-7-7---5-5-5-5--4-4-4--3-3--|




  Outro
e|-------------------------------------------------------------------|
B|-------------------------------------------------------------------|
G|---------10-10-10---------10-10-10----5-5-5-5---10-10-10--9-9-9----| 
D|---------x--x--x----------x--x--x-----5-5-5-5---x--x--x---x-x-x----|
A|--0-0-0--8--8--8---0-0-0--8--8--8-----3-3-3-3---8--8--8---7-7-7----|
D|--0-0-0------------0-0-0-------------------------------------------|


Thats about it! Enjoy          
                  
                                      Tabbed by AmericanIdiot46
Comments