Misc Unsigned Bands - 33 West - Saves Me Chords & Tabs

 

33 West - Saves Me Chords & Tabs

Misc Unsigned Bands Chords & Tabs

Version: 1 Type: Tab 0 ratings
1 star 2 stars 3 stars 4 stars 5 stars
comments

33 West - Saves Me Tab

This is a local ska band out of northern Virginia.  I'm sure someone out there has heard of them!
http://www.purevolume.com/33west
http://33westmusic.com
http://33-west.com


Standard Tuning
3 beats per measure
+ palm mute
************************************************************************

INTRO

e ----------------------------------------------------------|
B-----------------------------------------------------------|
G--------9-------------8-----------6------------------------|
D------9---9--------9----9-------7---7--------6------4------|  x6
A----7-------7----9--------9---7-------7----6------4--------|
E--0------------7------------5------------4------2----------|
                                        ||1st ending||

and on the last one use the 2nd ending:
-----------------|
-----------------|
-----------------|
---6-6-6-4-4-4---|
---4-4-4-2-2-2---|
---4-4-4-2-2-2---|

************************************************************************
VERSE.....of the two "stanzas" in the verses, there is no guitar for the first and this 
played for the second:

-----------------------------------------------------------------------------|
-----------------------------------------------------------------------------|
---9-9-9-9-9-9-------------6-6-6-6-6-6---------------------------------------|
---9-9-9-9-9-9-9-9-9-9-9-9-6-6-6-6-6-6-6-6-6-6-6-6-5-5-5-5-5-5-4-4-4-4-4-4---|
---7-7-7-7-7-7-9-9-9-9-9-9-4-4-4-4-4-4-6-6-6-6-6-6-5-5-5-5-5-5-4-4-4-4-4-4---|
---------------7-7-7-7-7-7-------------4-4-4-4-4-4-3-3-3-3-3-3-2-2-2-2-2-2---|

---x---------------------------|
---R---------------------------|
---E---------------------------|
---S---2-2---2-2---2-2---2-2---|
---T---2-2---2-2---2-2---2-2---|
---x---0-0---0-0---0-0---0-0---|
         +     +     +     +

************************************************************************
CHORUS
[ Tab from: http://www.guitartabs.cc/tabs/m/misc_unsigned_bands/33_west_saves_me_tab.html ]
----------------------------------------------------|
----------------------------------------------------|
---------------------------9-9-9-8-8-8-6-6-6-4-4-4--|
---7-7-7-7-7-7-9-9-9-9-9-9-9-9-9-8-8-8-6-6-6-4-4-4--|  x2
---7-7-7-7-7-7-9-9-9-9-9-9-7-7-7-6-6-6-4-4-4-2-2-2--|
---5-5-5-5-5-5-7-7-7-7-7-7--------------------------|

end with:
-------------------|
-------------------|
-------------------|
---7-7-7-7-7-7-9---|
---7-7-7-7-7-7-9---|
---5-5-5-5-5-5-7---|


***********************************************************************
VERSE
CHORUS

************************************************************************
BREAK

--------------------------------------------------|
--------------------------------------------------|
-----9-----9---------------------------7776-------|
---7---77------11------11---9----9------------9---|
--------------9---99------7---77------------------|

************************************************************************
CHORUS

************************************************************************
OUTRO

---------------------------------------------------------------------|
---------------------------------------------------------------------|
---------------------------------------------------------------------|
---2-2---2-2---2-2---2-2-2-2-2-2-2-9-9---9-9---9-9---9-9-9-9-9-9-9---|
---2-2---2-2---2-2---2-2-2-2-2-2-2-9-9---9-9---9-9---9-9-9-9-9-9-9---|
---0-0---0-0---0-0---0-0-0-0-0-0-0-7-7---7-7---7-7---7-7-7-7-7-7-7---|

---------------------------------------------------------------------|
---------------------------------------------------------------------|
---------------------------------------------------------------------|
---4-4---4-4---4-4---4-4-4-4-4-4-4-7-7---7-7---7-7---7-7-7-7-7-7-7---| x4
---4-4---4-4---4-4---4-4-4-4-4-4-4-7-7---7-7---7-7---7-7-7-7-7-7-7---|
---2-2---2-2---2-2---2-2-2-2-2-2-2-5-5---5-5---5-5---5-5-5-5-5-5-5---|
                                   ||        1st ending          ||

on the last time, use the 2nd ending:

-------------------------------------|
-------------------------------------|
-------------------------------------|
-7-7---6-6---7-7---6-6---7---6---7---|
-7-7---6-6---7-7---6-6---7---6---2---|
-5-5---4-4---5-5---4-4---5---4---0---|



**i know its not the best, but rate it anyway please! ;-)
xo
emily kate
Comments