Misc Unsigned Bands - 2little2late - Working On It Chords & Tabs

 

2little2late - Working On It Chords & Tabs

Misc Unsigned Bands Chords & Tabs

Version: 1 Type: Tab 0 ratings
1 star 2 stars 3 stars 4 stars 5 stars
comments

2little2late - Working On It Tab

I made this song....
Like it? NO! Love it!

Tab
Verse:
e---------------------------------------------------------------------
B---------------------------------------------------------------------
G----0-----0-----0----0-----0-----0---0-----0-----0---0-----0-----0---
D------9-----9----------7-----7---------5-----5---------5-----5------- 
A--7-----7-----7----5-----5-----5---3-----3-----3---3-----3-----3-----
E---------------------------------------------------------------------
             (4 times)


Chorus:
e---------------------------------------------------------------------
B----8-----8-----8----5-----5-----5----3-----3-----3---3-----3-----3--
G------0-----0----------0-----0----------0-----0---------0-----0------
D---------------------------------------------------------------------
A--7-----7-----7----5-----5-----5----3-----3-----3---3-----3-----3----
E---------------------------------------------------------------------
             (4 times)


Bridge:
e---------------------------------------------------------------------
B---------------------------------------------------------------------
G----0-----0-----0----0-----0-----0---0-----0-----0---0-----0-----0---
D------9-----9----------7-----7---------5-----5---------5-----5------- 
A--7-----7-----7----5-----5-----5---3-----3-----3---3-----3-----3-----
E---------------------------------------------------------------------
[ Tab from: http://www.guitartabs.cc/tabs/m/misc_unsigned_bands/2little2late_working_on_it_tab.html ]
e---------------------------------------------------------------------
B---------------------------------------------------------------------
G----0-----0-----0----0--------0--------0---0------0------0-----------
D------9-----9----------12-------12-----------10-----10---------------
A--7-----7-----7---10-------10-------10---7------7------7-------------
E---------------------------------------------------------------------

e---------------------
B---------------------
G----0------0------0--
D------10-----10------
A--7------7------7----
E---------------------

e---------------------------------------------------------------------
B---------------------------------------------------------------------
G----0-----0-----0----0-----0-----0---0-----0-----0---0-----0-----0---
D------9-----9----------7-----7---------4-----4---------5-----5------- 
A--7-----7-----7----5-----5-----5---2-----2-----2---3-----3-----3-----
E---------------------------------------------------------------------

e---------------------------------------------------------------------
B---------------------------------------------------------------------
G----0-----0-----0----0-------0-------0----0-------0-------0----------
D------9-----9----------12------12-----------14------14---------------
A--7-----7-----7---10------10------10---12------12------12------------
E---------------------------------------------------------------------

e-------------------------
B-------------------------
G----0--------------------
D------10---10-10-10h12p9-
A--7----------------------
E-------------------------


Outro:
e---------------------------------------------------------------------
B----8-----8-----8----5-----5-----5----3-----3-----3---3-----3-----3--
G------0-----0----------0-----0----------0-----0---------0-----0------
D---------------------------------------------------------------------
A--7-----7-----7----5-----5-----5----3-----3-----3---3-----3-----3----
E---------------------------------------------------------------------
            (4 times)

Thanks...I know you like...You can catch our song on the radio soon!!!
Comments