Misc Unsigned Bands - 2 Minute Warning - Stupied Chords & Tabs

 

2 Minute Warning - Stupied Chords & Tabs

Misc Unsigned Bands Chords & Tabs

Version: 1 Type: Tab 0 ratings
1 star 2 stars 3 stars 4 stars 5 stars
comments

2 Minute Warning - Stupied Tab

band:2-min warning
song:stuiped


        hey!!!!!!!!!!!!!!!!!!!!!!!!!!!!!!!!!!!!!!!!!!!!!!!!!!!!!!!!!!!!!!
whats up eveybody, my name is oscar.I am from the band two minute warning "2-min
warning" for short.We are a new punk band.I play guitar.my friend sean is the
bass player and singer and sara is our drumer.This is our first song. hope you like it
[ Tab from: http://www.guitartabs.cc/tabs/m/misc_unsigned_bands/2_minute_warning_stupied_tab.html ]
       [intro]                clean   2x
              
              6-------------1-----------5----------3-----------
              5 3--------------2---2-------7----7------5-----5-
              4 ---5----5--------2------------7-----------5----
              3------5-----------------------------------------
              2------------------------------------------------
              1------------------------------------------------
                  claen 2x
              6-------111111/55555\333333-
              5-33333-333333/77777\555555-
              4-55555-333333/77777\555555-
              3-55555---------------------
              2---------------------------
              1---------------------------
               pm.........................     verse 

              6-----------------------------
              5-33333333-33333-111111-55555-
              4-55555553-33333-333333-77777-
              3-55555553-33333-333333-77777-
              2-----------------------------
              1-----------------------------


                                                  chores
              6----------11111111-55-33-
              5-33333333-33333333-77-55-
              4-55555555-33333333-77-55-
              3-55555555----------------
              2-------------------------
              1-------------------------


                   outro  fast dis 5x
              6---------55599997777-
              5-7777----77711119999-
              4-9999----77711119999-
              3-9999----------------
              2---------------------
              1---------------------
 order
intro 2x
verse 3x
chores4x
veres 3x 
chore 4x
outro 7x
Comments