Misc Unsigned Bands - 2020 Vision - Im Leaving Chords & Tabs

 

2020 Vision - Im Leaving Chords & Tabs

Misc Unsigned Bands Chords & Tabs

Version: 1 Type: Tab 0 ratings
1 star 2 stars 3 stars 4 stars 5 stars
comments

2020 Vision - Im Leaving Tab

2020 Vision- Im Leaving

Intro
E|-------------------------------------------------|
B|-------------------------------------------------|
G|-------------------------------------------------|
D|--9-----------7------------5----------5-4-2-5-4--|
A|--7-777777777-5-5555555555-3-3333333--3-2-0-3-2--|
E|-------------------------------------------------|
(repeat twice)
E|-------------------------------------------------|
B|-------------------------------------------------|
G|--9------9------9-9-7-9------9-----9------9-7-7--|
D|--9------9------9-9-7-9------9-----9------9-7-7--|
A|--7-7777-7-7777-7-7-5-9------7-----7------7-5-5--|
E|------------------------0000--0000---0000--------|
(repeat)
[ Tab from: http://www.guitartabs.cc/tabs/m/misc_unsigned_bands/2020_vision_im_leaving_tab.html ]
Main Verse Riff (chord progression)
E|-------------------------------------------------|
B|-------------------------------------------------|
G|----------5*-------------------------------------|
D|---7*--5*-5"-5*----------------------------------|
A|---7---5--3--5-----------------------------------|
E|---5---3-----3-----------------------------------|
Chorus
E|-------------------------------------------------|
B|-------------------------------------------------|
G|---9-----9-7-------------------------------------|
D|---9-----9-7--9---10--10-------------------------|
A|---7-----7-5--9-9----10--------------------------|
E|---0-000-----------------------------------------|

E|-------------------------------------------------|
B|-------------------------------------------------|
G|-------------------------------------------------|
D|-------------------------------------------------|
A|------------5\8-5\8----------------4\7-4\7-------|
E|--000000000-3\6-3\6-(twice)-222222-2\5-2\5-------|
Bridge 
E|-------------------------------------------------|
B|-------------------------------------------------|
G|-------------------------------------------------|
D|---4\\\\\\\\\\\\\\14-14--------------------------|
A|---4\\\\\\\\\\\\\\14-14--------------------------|
E|---2\\\\\\\\\\\\\\12-12--------------------------|
Solo
E|-------------------------------------------------|
B|-------------------------------------------------|
G|-------------------------------------------------|
D|-------------------------------------------------|
A|-------------------------------------------------|
E|---X-X-3-X-X-4-X-X-5-X-X-3-X-X-4-X-X-5-X-X-555---|

E|-------------------------------------------------|
B|-------------------------------------------------|
G|-------------------------------------------------|
D|-------------------------------------------------|
A|-------------------------------------------------|
E|---0-0-3-0-0-4-0-0-5-0-0-3-0-0-4-0-0-5-0-0-555---|
(twice)
Comments