Misc Unsigned Bands - 18a - The Untitled Song Chords & Tabs

 

18a - The Untitled Song Chords & Tabs

Misc Unsigned Bands Chords & Tabs

Version: 1 Type: Tab 0 ratings
1 star 2 stars 3 stars 4 stars 5 stars
comments

18a - The Untitled Song Tab

   
-------------------------------------------------------------------------------
			     The Untitled Song - 18a
-------------------------------------------------------------------------------
Tabbed by: 18a
Email:aj_7th@hotmail.com

Tuning:D

Intro
e|---------------------------------------------------------------------|
B|---------------------------------------------------------------------|
G|---------------------------------------------------------------------|
D|--0--3--2--0--5--3--2--0--7--5--3--2--0------------------------------|
A|--0--3--2--0--5--3--2--0--7--5--3--2--0------------------------------|
D|--0--3--2--0--5--3--2--0--7--5--3--2--0------------------------------|

Verse
     Am  C  F  D    Am    C    F    F#    Am    C    F    D
e|----0--0--1--2---------------------2---------------------------------|
B|----1--1--1--3---------------------2---------------------------------|
G|----2--2--2--2---------------------3---------------------------------|
D|----2--0--3--0---------------------4---------------------------------|
A|----0--3-------------------------------------------------------------|
D|---------------------------------------------------------------------|
[ Tab from: http://www.guitartabs.cc/tabs/m/misc_unsigned_bands/18a_the_untitled_song_tab.html ]
e|------------0--------------------------------------------------------|
B|-------1p0-----1--0--------------------------------------------------|
G|----2----------------------------------------------------------------|
D|----2----------------------------------------------------------------|
A|----0----------------------------------------------------------------|
D|---------------------------------------------------------------------|
Continue for 4 times
                       Am
e|------------0--------------------------------------------------------|
B|-------1p0-----1--0--------------------------------------------------|
G|----2----------------------------------------------------------------|
D|----2----------------------------------------------------------------|
A|----0----------------------------------------------------------------|
D|---------------------------------------------------------------------|

Bridge/Outro
e|---------------------------------------------------------------------|
B|---------------------------------------------------------------------|
G|---------------------------------------------------------------------|
D|---------------------------------------------------------------------|
A|---------------------------------------------------------------------|
D|----0h3--5\7--3------------------------------------------------------|
Continue 2 times then stop

| \  slide down
| h  hammer-on
| p  pull-off
=============================================================================== Note: 
is a band (kinda sorta) that me and my buds made at summer camp with our camp counselor, 
Thanks man!
Comments