Misc Unsigned Bands - 120 Antony Way - I Cant Change Chords & Tabs

 

120 Antony Way - I Cant Change Chords & Tabs

Misc Unsigned Bands Chords & Tabs

Version: 1 Type: Tab 0 ratings
1 star 2 stars 3 stars 4 stars 5 stars
comments

120 Antony Way - I Cant Change Tab

This is some crazyfool guitarplayin'
HOPE U LIKE IT

Written by: "STC"

intro:3x
 |------------------------------------------|
 |------------------------------------------|
 |-----------2p0-------2--------------------|
 |------------------2--0------0-------------|
 |-------0----------3-----0-3---0-3-0-------|
 |---0-3-------------------------------0-2--|
[ Tab from: http://www.guitartabs.cc/tabs/m/misc_unsigned_bands/120_antony_way_i_cant_change_tab.html ]
 |-----------------0----0----------||---------------0---------0---0--------|
 |--------------------------1------||-------1---1-----------------------0--|
 |--------------0----0----0----0---||---------0------------1----1----1----1|
 |---------------------------------||-------------3------------------------|
 |-----------2---------------------||----2--------------3------------------|
 |---0-2-0-3-----------------------||--0-----------------------------------|

 |------------------0-----------0-------0-------0-| That was pretty cool,
 |--------0---0---------------2-------2-------2---| I dont think it was 
 |----------1-------------------------------------| That hard.
 |---------------2--------------------------------|
 |----3----------------0-3-4-------3-------2------|
 |--3---------------------------------------------|



I HOPE U LIKED IT """""GIVE ME 5 STARS IF YOU DO""""" 



Comments