Misc Unsigned Bands - 0 Art - Two Apples Chords & Tabs

 

0 Art - Two Apples Chords & Tabs

Misc Unsigned Bands Chords & Tabs

Version: 1 Type: Bass Tab 0 ratings
1 star 2 stars 3 stars 4 stars 5 stars
comments

0 Art - Two Apples Bass Tab

Written by - Clark Toopi

This is the bass tab 4 this song. My friend thought my how to play it.
[ Tab from: http://www.guitartabs.cc/tabs/m/misc_unsigned_bands/0_art_two_apples_btab.html ]
Intro/Verse
G|-------------------------------------|
D|-------------------------------------|
A|-------3-5-5-------3-5-5-------3-5-5-|
E|-5-3-5-------6-3-5-------5-3-5-------|
Chorus
G|-----------------------------------|
D|-----------------------------------|
A|-------3-3-5-5-------3-3-5-5-------|
E|-5-3-5---------6-3-5---------5-3-5-|




  000   PPPPPP  L      U     U  SSSSS    000
 0   0  P     P L      U     U S        0   0
0     0 P     p L      U     U  SSSSS  0     0
0     0 PPPPPP  L      U     U       S 0     0
 0   0  P       L       U   U  S     S  0   0
  000   P       LLLLLL   UUU    SSSSS    000
Comments