Misc Traditional - Wildwood Flower Chords & Tabs

 

Wildwood Flower Chords & Tabs

Misc Traditional Chords & Tabs

Version: 2 Type: Tab 0 ratings
1 star 2 stars 3 stars 4 stars 5 stars
comments

Wildwood Flower Tab

WILDWOOD FLOWER
Misc. Tradition Song
Transcribed By: Wes Anderson


e---------0-0-------0-------0---------1------------0---0--
b---------1-1-------1-------1---------0------------1---1--
G------0--0-0--0h2----------0---------0------------0---0--
A--2-3-----------------0h2--2--3-2-0--0--2p0-------2---2--
D---------------------------3-----------------2-3--3---3--
E----------------------------------------------------3----

[ Tab from: http://www.guitartabs.cc/tabs/m/misc_traditional/wildwood_flower_tab_ver_2.html ]
e-----0--------0-0-------0-------0---------1----------0--0
b-----1--------1-1-------1-------1---------0----------1--1
G-----0------0-0-0--0h2----------0---------0----------0--0
A-----2---------------------0h2--2--3-2--0-0-2-0------2--2
D--3--3--2-3-------------------------------------2--3-3--3
E-------------------------------------------------------3-


e----0------0--0-0--0------0-0---0------1-1--1------0-----
b----1---1--1--1-1--1-3-1--1-1---1------1-1--1------1-----
G----0-0----0--0-0--0----------0----0h2-2-2--2--2-0-------
A----2---------------------------------------------------0
D--3-3-------------------------------------------------3--
E---------------------------------------------------------


e------0-0-----0-0-----0----------1----------0---0----0----
b------1-1-----1-1-----1----------0----------1---1----1----
G------0-0-----0-0-----0-2p0------0----------0---0----0----
A--0h2-----0h2-----0h2-------2--0-0-2p0------2---2----2----
D---------------------------------------2--3-3---3--3-3----
E----------------------------------------------3----------



Comments