Misc Traditional - When Johnny Comes Marching Home Chords & Tabs

 

When Johnny Comes Marching Home Chords & Tabs

Misc Traditional Chords & Tabs

Version: 1 Type: Tab 0 ratings
1 star 2 stars 3 stars 4 stars 5 stars
comments

When Johnny Comes Marching Home Tab

				When Johnny comes marching home


Civil war song (from the south i belive)
Tabed by: Oskar.K (e-mail: parappa83@hotmail.com)


1------------------------------------------------------------|
2------------------------------------------------------------|
3--------------------0------0--------------------------------|
4-----2--2--2--2--4------4-----2--0-------0------------------|
5--2----------------------------------2----------------------|
6------------------------------------------------------------|
When Johnny comes marching home again      hurrah, hurrah!

1------------------------------------------------------------|
2------------------------------------------------------------|
3--------------------0------0----2---4---0--4----------------|
4-----2--2--2--2--4------4-----------------------------------|
5--2---------------------------------------------------------|
6------------------------------------------------------------|
We?ll give him a hearty welcome then       hurrah, hurrah!

[ Tab from: http://www.guitartabs.cc/tabs/m/misc_traditional/when_johnny_comes_marching_home_tab.html ]
1------------------------------------------------------------|
2------------------------------------------------------------|
3--0---4--4--4--2---0---2--2------0--0--0--------------------|
4------------------------------4-----------4---2--4--4-4-----|
5------------------------------------------------------------|
6------------------------------------------------------------|
The men will cheer, the boys will shout, and the ladies they will all turn out


1------------------------------------------------------------|
2------------------------------------------------------------|
3-0--0--2---4---2---0----------------------------------------|
4----------------------2--2-2-2--0--2------------------------|
5------------------------------------------------------------|
6------------------------------------------------------------|
And we?ll all be gay when Johnny comes marching home

(i know its sounds strange here, if u got any better sugestions
please e-mail me to parappa83@hotmail.com)

(Verse 2,3 and 4 is played as verse 1)

2.

The old churchbell will peel with joy	   hurrah, hurrah!
To welcome home our darling boy            hurrah, hurrah!
The village lads and lassies say
With roses they will strew the way
And we?ll all be gay when Johnny comes marching home

3.

Get ready for the jubilee                  hurrah, hurrah!
We?ll give the hero three times three	   hurrah, hurrah!
The laurel wreath is ready now
To place upon his loyal brow
And we?ll all be gay when Johnny comes marching home

4.

Let love and friendship on that day        hurrah, hurrah!
Their choicest treasures then display      hurrah, hurrah!
And let each one performe some part
To fill with joy the warriors heart
And we?ll all be gay when Johnny comes marching home
Comments