Misc Traditional - Vande Mataram Chords & Tabs

 

Vande Mataram Chords & Tabs

Misc Traditional Chords & Tabs

Version: 2 Type: Tab 0 ratings
1 star 2 stars 3 stars 4 stars 5 stars
comments

Vande Mataram Tab

Vande Mataram
Composed by Bankim Chandra Chatterjee

It is a patriotic Indian song, which sounds very soulful and melodious.


-------------------0-2--6-7-6-7------7-9-5-4-2---2-4-0---------2-0-0---------------|
-0-2--5-7-5-7------------------------------------------4-2---2-------4-4-0---------|
-----------------------------------------------------------------------------------|
-----------------------------------------------------------------------------------|
-----------------------------------------------------------------------------------|
-----------------------------------------------------------------------------------|
[ Tab from: http://www.guitartabs.cc/tabs/m/misc_traditional/vande_mataram_tab_ver_2.html ]
-----------------------------0-2-6-7-6-7-------------------------------------------|
-0-2---5-7-5-7---7-10-9-7---------------------5-7-11-11--11-11-12-11-12-11-12------|
-----------------------------------------------------------------------------------|
-----------------------------------------------------------------------------------|
-----------------------------------------------------------------------------------|
-----------------------------------------------------------------------------------|

--------------------------------------------------------------5-4-5-2-4-2----------|
-11-11-11-12-11-12--12-14-12-10-10-9-10-9-7----2-4s5-4-2----2----------------------|
-----------------------------------------------------------------------------------|
-----------------------------------------------------------------------------------|
-----------------------------------------------------------------------------------|
-----------------------------------------------------------------------------------|

-0-2-6--6-6-6--6-7-6-7----0-2-6-7-6-7----------------------------------------------|
-----------------------------------------------------------------------------------|
-----------------------------------------------------------------------------------|
-----------------------------------------------------------------------------------|
-----------------------------------------------------------------------------------|
-----------------------------------------------------------------------------------|

If anyone has any ideas for interesting variations please mail them to me at stubbles_2001@hotmail.com
Enjoy the song

Prashant
Comments