Misc Traditional - Twinkle Twinkle Little Star Chords & Tabs

 

Twinkle Twinkle Little Star Chords & Tabs

Misc Traditional Chords & Tabs

Version: 4 Type: Tab 0 ratings
1 star 2 stars 3 stars 4 stars 5 stars
comments

Twinkle Twinkle Little Star Tab

   
  C        F    c/e F    C   G7   C
------3-3--5-5--3---1-1--0-0--------------||Fine
--1-1-----------1---1----1---3-3--1-------||
--0--------5----0---2----0---0----0-------||
--2--------3----2---3--------3----2-------||
--3----------------------3--------3-------||
-----------------------------3------------||
     C    F    C   G7
|| --3-3--1-1--0-0---- || D.S
||.--1----1----1---3--.||
|| --0----2----0---0-- ||
||.--2----3--------3--.||
|| --3---------3------ ||
|| ----------------3-- ||
[ Tab from: http://www.guitartabs.cc/tabs/m/misc_traditional/twinkle_twinkle_little_star_tab_ver_4.html ]
Comments