Misc Traditional - This Little Light Of Mine Chords & Tabs

 

Misc Traditional Chords & Tabs

Version: 1 Type: Tab 0 ratings
1 star 2 stars 3 stars 4 stars 5 stars
comments

This Little Light Of Mine Tab

   
----------------------------------------------------------------------------
			     This Little Light of Mine
----------------------------------------------------------------------------

Tabbed by: Dave S. 
Email: Dlgibson@netscape.com

Tuning: Standard




Gtr I (E A D G B E) 

  Q=120
  Gtr I

|-----------0--|-3------------|-7----7-7--5--|-3---------|
|-3------3-----|--------------|-----------0--|-0---------|
|------0-------|------0-------|--------------|-0---------|
|----0------0--|----0------0--|----0---------|------0----|
|--------------|--------------|--------------|-----------|
|-3------3-----|-3------3-----|-7------7--5--|-3---------|


[ Tab from: http://www.guitartabs.cc/tabs/m/misc_traditional/this_little_light_of_mine_tab.html ]
|-0------0--2--|-3------------|-3------3--0--|--------------|
|--------------|--------------|--------------|-3------------|
|------0-------|------0-------|------0-------|------0-------|
|----2---------|----2------2--|----2------2--|----0------0--|
|-3------3-----|-3------3-----|-3------3-----|--------------|
|--------------|--------------|--------------|-3------3-----|



|-----------0--|-3------------|-------7-----|-3------------|
|-3------3-----|--------------|-0-----7-----|--------------|
|------0-------|------0-------|-------------|------0-------|
|----0------0--|----0------0--|----0-----7--|----2------2--|
|--------------|--------------|-------------|--------------|
|-3------3-----|-3------3-----|-3-----7-----|-0------0-----|



|-7-------------|-5--------5----|-3----|
|----------0----|------7--------|-0----|
|------0--------|----5----------|-0----|
|----0-------0--|------------7--|------|
|---------------|-5-------------|------|
|-3------3------|--------5------|-3----|


| /  slide up
| \  slide down
| h  hammer-on
| p  pull-off
| ~  vibrato
| +  harmonic
| x  Mute note
===========================================================================
Comments