Misc Traditional - Star Spangled Banner Chords & Tabs

 

Star Spangled Banner Chords & Tabs

Misc Traditional Chords & Tabs

Version: 1 Type: Tab 2 ratings
1 star 2 stars 3 stars 4 stars 5 stars
comments

Star Spangled Banner Tab

Star Spangled Banner
By: Brad 

this version is a lot easier than the popular "Jimi Hendrix" version.
E [-------------------------------------------------------------]
B [---------------------------9---7-----------------------------]
G [----------------------9------------9-------------------------]
D [--9---6------6---9--------------------6---7---9--------------]
A [----------7--------------------------------------------------]
E [-------------------------------------------------------------]

E [-------------------------------------------------------------]
B [-----------9---7---------------------------------------------]
G [--------------------9---8---6---8---9---9--------------------]
D [--9---9--------------------------------------9---6-----------]
A [-------------------------------------------------------7-----]
E [-------------------------------------------------------------]
[ Tab from: http://www.guitartabs.cc/tabs/m/misc_traditional/star_spangled_banner_tab.html ]
E [-------------------------------------------------------------]
B [--9--9--9--10--12--12------12--10--9--7--9--10--10-----------]
G [-------------------------------------------------------------]
D [-------------------------------------------------------------]
A [-------------------------------------------------------------]
E [-------------------------------------------------------------]

E [-------------------------------------------------------------]
B [--10--9--7---------------------------------------------------]
G [--------------9--8--6--8--9-------------------9--9--9--8-----]
D [--------------------------------6--8--9----9-----------------]
A [-------------------------------------------------------------]
E [-------------------------------------------------------------]

E [-------------------------------------------------------------]
B [-------------7--10--9--7-------------------------------------]
G [--6--6--6------------------9--9--8-------------9-------------]
D [------------------------------------------9--9---------------]
A [-------------------------------------------------------------]
E [-------------------------------------------------------------]

E [-------------------------------------------------------------]
B [--7--9--10--12-------7--9--10------10--7--5------------------]
G [-------------------------------------------------------------]
D [-------------------------------------------------------------]
A [-------------------------------------------------------------]
E [-------------------------------------------------------------]
Comments