Misc Traditional - Star Spangled Banner Chords & Tabs

 

Star Spangled Banner Chords & Tabs

Misc Traditional Chords & Tabs

Version: 3 Type: Bass Tab 0 ratings
1 star 2 stars 3 stars 4 stars 5 stars
comments

Star Spangled Banner Bass Tab

tabed by: jacob_tucker
The Star Spangled Banner

One night I was playing my cousin's bass and I figured this out.  It
may not be exactly right, but I think it's pretty damn close.


G---------------------9-7---------------------------9-7-----------------------------------|
D-----------------10------10----------------------------10-9-7-9-10-10--------------------|
A---10-7---7-10-------------7-9-10--------10-10------------------------10-7---------------|
E---------8-----------------------------------------------------------------------8-------|

G---------------------9-7---------------------------9-7-----------------------------------|
D-----------------10------10----------------------------10-9-7-9-10-10--------------------|
A---10-7---7-10-------------7-9-10--------10-10------------------------10-7---------------|
E---------8-----------------------------------------------------------------------8-------|
[ Tab from: http://www.guitartabs.cc/tabs/m/misc_traditional/star_spangled_banner_btab_ver_3.html ]
G-----------------------------------------------------------------------------------------|
D---9-9-9-10-12--10-9-7-9-10-10--10-9-7---------------------------------------------------|
A-----------------------------------------------10-9-7-9-10-------------------------------|
E--------------------------------------------------------------7-9-10---------------------|

G-----------------------------7-10-9-7-----------------------------------------------------|
D-------10-10-10-9-7-7-7--------------10-10-9----------------------------------------------|
A---10-------------------------------------------------------------------------------------|
E------------------------------------------------------------------------------------------|

G--------------7-9-10-12------7-9-10-7------------------------------------------------------|
D----------10--------------10-------------10------------------------------------------------|
A---10-10-----------------------------------------------------------------------------------|
E-------------------------------------------------------------------------------------------|
Comments