Misc Traditional - Shenandoah Chords & Tabs

 

Shenandoah Chords & Tabs

Misc Traditional Chords & Tabs

Version: 2 Type: Tab 0 ratings
1 star 2 stars 3 stars 4 stars 5 stars
comments

Shenandoah Tab

#----------------------------------PLEASE NOTE--------------------------------#
#This file is the author's own work and represents their interpretation of the#
#song. You may only use this file for private study, scholarship, or research.#
#-----------------------------------------------------------------------------#
#-- File created with Instab - http://www.pconline.com/~smcarey/instab.html --#
#-----------------------------------------------------------------------------#
[ Tab from: http://www.guitartabs.cc/tabs/m/misc_traditional/shenandoah_tab_ver_2.html ]
Author/Artist: Traditional
Title: Shenandoah
---|---------------|---------|---------|-------|-------------|-------|--------|
---|-----1-1-------|-----1-0-|---------|-------|-------------|-------|--------|
---|-----0-2-------|-2-0-----|-2-0-2-0-|---0-0-|-2-2-2---0---|-------|--------|
---|-----2-2-0-2-3-|---2-----|-3-------|-2-2---|-----3-2---2-|-0-----|--------|
---|-3-3-3-0-------|---3-----|---------|---3---|-------------|---3---|-3-3-3--|
-3-|---------------|---------|---------|-------|-------------|-----3-|--------|


---|-------|-0---|-------|---------------|---------|---------|--------|-------|
---|---1-3-|-1-1-|-3-1---|-----1-1-------|-----1-0-|---------|--------|-------|
-2-|-0-----|-----|-0-0---|-----0-2-------|-2-0-----|-2-0-2-0-|---0--0-|-2-2---|
---|-------|-----|-3-2---|-----2-2-0-2-3-|---2-----|-3-------|-2-2----|-------|
---|-------|-----|---3---|-3-3-3-0-------|---3-----|---------|--------|-------|
---|-------|-----|-----3-|---------------|---------|---------|--------|-------|


---------|-------|---------|-------|-0------|-------|-|-----------------------|
---------|-------|---------|---1-3-|-1----1-|-3-1---|-|-----------------------|
-2---0---|-------|---------|-0-----|-2------|-0-0---|-|-----------------------|
-3-2---2-|-0-----|-------2-|-2-----|--------|-3-2---|-|-----------------------|
---------|---3---|-3-3-3---|-------|--------|---3---|-|-----------------------|
---------|-----3-|---------|-------|--------|-------|-|-----------------------|
Comments