Misc Traditional - On Top Of Old Smokey Chords & Tabs

 

On Top Of Old Smokey Chords & Tabs

Misc Traditional Chords & Tabs

Version: 1 Type: Tab 2 ratings
1 star 2 stars 3 stars 4 stars 5 stars
comments

On Top Of Old Smokey Tab

				On top of old smokey
			
[ Tab from: http://www.guitartabs.cc/tabs/m/misc_traditional/on_top_of_old_smokey_tab.html ]
  On  top  of  old  smok-ey, all covered in  snow. I lost my true lover       
----------------------3---0----0-----------0--------------------------
|                                                                     |
------------0-----3----------------1----3------3----------0--3--3-----
|                                                                     |
---0---0-------------------------------------------0--0-------------2-
|                                                                     |
----------------------------------------------------------------------
|                                                                     |
----------------------------------------------------------------------
|                                                                     |
----------------------------------------------------------------------

  bya  coutin to   slow
----------------------------------------------------------------------
|                                                                     
--------1---0-----------------------------------------------------------
|                                                                     
---2-----------2---0-----------------------------------------------------
|                                                                     
----------------------------------------------------------------------
|                                                                     
----------------------------------------------------------------------
|                                                                     
----------------------------------------------------------------------


Peace out

Comments