Misc Traditional - Marine Corp Hymn Chords & Tabs

 

Marine Corp Hymn Chords & Tabs

Misc Traditional Chords & Tabs

Version: 2 Type: Tab 0 ratings
1 star 2 stars 3 stars 4 stars 5 stars
comments

Marine Corp Hymn Tab

Title:	Marine Corp Hymn
Date: 	July 8, 2002
From: 	Jeff Fox


This is the closest way to play it that I know.


e:-----------------------3--------------------------------------------------|
B:-----0--3--3--3--3--3-----3--0--1--3--3--1--------------------------------|
G:--0-----------------------------------------2--0--------------------------|
D:--------------------------------------------------------------------------|
A:--------------------------------------------------------------------------|
E:--------------------------------------------------------------------------|
[ Tab from: http://www.guitartabs.cc/tabs/m/misc_traditional/marine_corp_hymn_tab_ver_2.html ]
e:-----------------------3--------------------------------------------------|
B:-----0--3--3--3--3--3-----3--0--1--3--3--1--------------------------------|
G:--0-----------------------------------------2--0--------------------------|
D:--------------------------------------------------------------------------|
A:--------------------------------------------------------------------------|
E:--------------------------------------------------------------------------|

e:--3--1--0-----0--------------|--3--1--0-----0-----------------------------|
B:-----------1-----1--3--1--3--|-----------1-----1--3-----------------------|
G:-----------------------------|--------------------------------------------|
D:-----------------------------|--------------------------------------------|
A:-----------------------------|--------------------------------------------|
E:-----------------------------|--------------------------------------------|

e:-----------------------3--------------------------------------------------|
B:-----0--3--3--3--3--3-----3--0--1--3--3--1--------------------------------|
G:--0-----------------------------------------2--0--------------------------|
D:--------------------------------------------------------------------------|
A:--------------------------------------------------------------------------|
E:--------------------------------------------------------------------------|
Comments