Misc Traditional - Llami Honrados Chords & Tabs

 

Llami Honrados Chords & Tabs

Misc Traditional Chords & Tabs

Version: 1 Type: Tab 0 ratings
1 star 2 stars 3 stars 4 stars 5 stars
comments

Llami Honrados Tab

   
#----------------------------------PLEASE NOTE---------------------------------#
#This file is the author's own work and represents their interpretation of the #
#song. You may only use this file for private study, scholarship, or research. #
#------------------------------------------------------------------------------##
From: kharding@lamar.ColoState.EDU (Karol Harding)

            LLAMI HONRADOS 
         (I call the esteemed)

This is a traditional Ladino/Judeo-spanish song as recorded
on Lauren Pomerantz CD "Wings of Time".
Tab by Karol Henderson Harding 1994
4/4  Key of A

  INTRO:
E|-9------7-----|--5-----3-----|--5-----5-----|--5-----5-----|*Repeat
B|---10-----8---|----5-----5---|----5-----5---|-----5--------|*
G|--------------|--------------|--------------|--------------|
D|--------0-----|--------------|--------------|--------------|
A|-0------------|--7-----5-----|--7-----------|--------------|
E|--------------|--------------|--------------|--------------|

SECTION A: for 1 verse: x2, for chorus 1x plus part B

E|-0-0--5-5-9--7|-5-------2--0-|-5-7-5-7-9--10-9-|-7---5-----|
B|-2----5---10--|-5------------|-5-------10------|-5---5-----|
G|------6-------|--------------|-----6-----------|-----6-----|
D|--------------|--------------|-----7-----------|-7---7-----|
A|-0----7---0---|-7------------|-7--------0------|-----7-----|
E|--------------|--------------|--------------|--------------|


E|-9--9-7-5-7-5-|--2------0----|-0--0-2-0---0-|--2-----0-----|
B|-10-------5---|---------2----|----------3---|--3---3-2-----|
G|-9------------|---------2----|--------------|--2-----2---2-|
D|------7---7---|--0-----------|--------------|--0-------2---|
A|-0------------|---------0----|--------------|--------0-----|
E|--------------|--------------|--------------|--------------|

SECTION B: part 2 of Chorus 
[ Tab from: http://www.guitartabs.cc/tabs/m/misc_traditional/llami_honrados_tab.html ]
E|--9----9-----|-7----7-----|-5----5-----|-3-----3---|-5---5----|
B|---10---10---|--8-----8---|---5----5---|---5----5--|---5---5--|
G|-----9-----9-|----9-----9-|-----6----6-|----4-----4|----6---6-|
D|7------------|-0----------|-7----------|-5---------|-7--------|
A|--0----------|------------|-7----------|-----------|-7--------|
E|-------------|------------|------------|-----------|----------|
  (ooh, ooh .........

E|-9---9--7---7-5-|-3---5------|-9-10-9-7--9--|-5------------|
B|---10-----8---5-|-3---5------|10---------10-|-5----5-------|
G|--------------6-|-4---6------|--------------|-6------------|
D|--------0-----7-|-5---7------|--------------|--------------|
A|-0--------------|-5---7------|-0------------|-7------------|
E|----------------|------------|--------------|--------------|
  ooh, ohh..........

E|-9---10-9-7-9-|-5------------|-0-0-2-0---0--|-2----0-------|
B|10----------10|-5---5--------|-2-------3----|-3--3-2-------|
G|------------9-|-6------------|-2------------|-2----2-----2-|
D|--------------|--------------|---------0----|-0-------2-2--|
A|-0------------|-7------------|-0------------|------0-------|
E|--------------|--------------|--------------|--------------|


                                FINAL ENDING:
E|-0--0-2-0---0-|-2-----0-----||-5----5---5----5-----5-------|
B|-2--------3---|-3--3--2-----||---6---6---6-----6-----------|
G|-2--------2---|-2-----2-----||----7----7---7-----7---------|
D|----------0---|-0-----------||-7---------------------------|
A|-0------------|-------0-----||-7---------------------------|
E|--------------|-------------||-----------------------------|

CHORDS USED:
   Em/d? E9**     A(5)  A(9)    

E|-7----3-------|-5------9-----|--------------|--------------|
B|-5----5-------|-5------10----|--------------|--------------|
G|-6----4-------|-6------9-----|--------------|--------------|
D|-7----5-------|-7------9-----|--------------|--------------|
A|------5-------|-7------------|--------------|--------------|
E|--------------|--------------|--------------|--------------|
** the Em/d? to A(5) transition can be done with 1 finger moved.  


Comments