Misc Traditional - Irish National Anthem Chords & Tabs

 

Irish National Anthem Chords & Tabs

Misc Traditional Chords & Tabs

Version: 3 Type: Tab 0 ratings
1 star 2 stars 3 stars 4 stars 5 stars
comments

Irish National Anthem Tab

this is one of the best songs to play super rocky loadsa wah and billions of
distortion
have fun!!


e  -------------------------------------------------------------------------|
B  -------3-----------------------------------------------------------------|
G  ---3-5---3------------------------------------5-7-5----------------------|
D  -----------3----3-5-3----3-5-3---/8-7-5---7^8-------5/7------------------|
A  ---------------------6-6-------------------------------------------------|
E  -------------------------------------------------------------------------|
[ Tab from: http://www.guitartabs.cc/tabs/m/misc_traditional/irish_national_anthem_tab_ver_3.html ]
e  -------------------------------------------------------------------------|
B  -------3-----------------------------------------------------------------|
G  ---3-5---3---------------------------------------------------------------|
D  -----------3----3-5-3-----3-5-3---/7-7-7-7-7-7-5-------------------------|
A  ----------------------6-6------------------------6-6---------------------|
E  -------------------------------------------------------------------------|

e  ---------------------------------------------------------------3-5-------|
B  -----------------------6-5-3-5-3-------------------------3-5-6-----------|
G  ---------------------------------5-3-2----5-2---2-5-5--5-----------------|
D  ---5--3-2-3-0-2-3-5-7-5-----------------------3--------------------------|
A  -------------------------------------------------------------------------|
E  -------------------------------------------------------------------------|

e  ---\3-1-------/5-3--------------|
B  -------4-4---------6-6----------|
G  --------------------------------|
D  --------------------------------|
A  --------------------------------|
E  --------------------------------|
Comments