Misc Traditional - Irish National Anthem Chords & Tabs

 

Irish National Anthem Chords & Tabs

Misc Traditional Chords & Tabs

Version: 2 Type: Tab 0 ratings
1 star 2 stars 3 stars 4 stars 5 stars
comments

Irish National Anthem Tab

   
Tabbed by Tragamin2002 (Niall Lanigan)


e|----------------------------------------------------------
B|----------------------------------------------------------
G|5-7-9-5-0--0-2-2---2-0-2-0-5-4-2-4-5-7-9-7-2-4-5-7-9-5-0--
D|-----------------3----------------------------------------
A|----------------------------------------------------------                 
E|----------------------------------------------------------
[ Tab from: http://www.guitartabs.cc/tabs/m/misc_traditional/irish_national_anthem_tab_ver_2.html ]
e|----------------------------------------------------------
B|----------------------------------------------------------
G|0-2-2----2-0-2-0-2-4-4-4-4-4-2-0-0-0-------------0 2 0 5--
D|-------3-----------------------------3-2-3-0-2-3----------  
A|----------------------------------------------------------
E|----------------------------------------------------------

e|----------------------------------------------------------
B|----------------------------------------------------------
G|4-2-4-2-0-----0--------0-2-4-5-7-9-5-2-0-5-9-7-5-5--------
D|----------3 0---2----2------------------------------------
A|------------------3---------------------------------------
E|----------------------------------------------------------

T2K2 (c)
Comments