Misc Traditional - Il Est Ne Le Divin Enfant Chords & Tabs

 

Misc Traditional Chords & Tabs

Version: 1 Type: Tab 0 ratings
1 star 2 stars 3 stars 4 stars 5 stars
comments

Il Est Ne Le Divin Enfant Tab

Il Est Ne le Divin Enfant
French Christmas Song
Normal Tuning


E|--------0---------|-------0-1-0---------|-------0-----------|
B|----1-1---1---1-1-|-1-1-3-------3-1-3-3-|---1-1---1---1-1---|
G|--0---------0-----|---------------------|-0---------0-------|
D|------------------|---------------------|-------------------|
A|------------------|---------------------|-------------------|
E|------------------|---------------------|-------------------|

[ Tab from: http://www.guitartabs.cc/tabs/m/misc_traditional/il_est_ne_le_divin_enfant_tab.html ]
E|------0-1-0---3---|-0-1-3-1-0-1-5-3-----|-0-1-3-5-3-1-0-0---|
B|--1-3-------3---1-|---------------------|-----------------3-|
G|------------------|---------------------|-------------------|
D|------------------|---------------------|-------------------|
A|------------------|---------------------|-------------------|
E|------------------|---------------------|-------------------|

					      Keep repeating
E|-0-1-3-1-0-1-5-3--|--0-1-3-5-3-1-0------|-------------------|
B|------------------|----------------3----|-------------------|
G|------------------|---------------------|-------------------|
D|------------------|---------------------|-------------------|
A|------------------|---------------------|-------------------|
E|------------------|---------------------|-------------------|

Pretty simple, and if you need it, a midi and lyrics can be found here:
http://www.geocities.com/johnkoji/xmas/
Comments