Misc Traditional - Hockey Night In Canada Chords & Tabs

 

Hockey Night In Canada Chords & Tabs

Misc Traditional Chords & Tabs

Version: 1 Type: Tab 1 rating
1 star 2 stars 3 stars 4 stars 5 stars
comments

Hockey Night In Canada Tab

Hockey Night In Canada - Theme Song

Tabbed by:  Jeff Weir  (jaweir2@uwo.ca)

This is for all the Hockey Night In Canada Lovers 
out there. I decided to tab the theme song, so here it is!
Enjoy.

3^p^3 = just lift your finger off
3p2   = pull off
(4)   = ring out

Listen to the song to get the hang of it ... 

E |---------------------------|-------------------------------|
B |---------------------------|-------------------------------|
G |---------------------------|-------------------------------|
D |-----------3^p^3---2-------|-----------3-3---2-------------|
A |----3^p^3------------------|----3^p^3----------------------|
E |---------------------------|-------------------------------|


E |---------------------------|-------------------------------|
B |---------------------------|-------------------------------|
G |-----------3^p^3---2-------|-------------------------------|
D |----3^p^3------------------|------------------3-3---3p2----|
A |---------------------------|--------3-3-3-3----------------|
E |---------------------------|-------------------------------|


E |---------------------------|-------------------------------|
B |---------------------------|-------------------------------|
G |-------------3-3---3p2-----|-------------------------------|
D |------3-3-3----------------|-------------------------------|
A |---------------------------|-------------------------------|
E |---------------------------|-------------------------------|

[ Tab from: http://www.guitartabs.cc/tabs/m/misc_traditional/hockey_night_in_canada_tab.html ]
E |---------------------------|-------------------------------|
B |---------------------------|-------------------------------|
G |----------------3-3---2----|--------------3-3---2----------|
D |-----------3-3-------------|-------3-3-3-------------------|
A |----3-3-3------------------|-------------------------------|
E |---------------------------|-------------------------------|


E |---------------------------|-------------------------------|
B |---------------------------|-------------------------------|
G |-------------3-3---3p2-----|-------------3-3---3p2---------|
D |------3-3-3----------------|------3-3-3--------------------|
A |---------------------------|-------------------------------|
E |---------------------------|-------------------------------|


E |---------------------------|-------------------------------|
B |---------------------------|-------------------------------|
G |----------------3-3---2----|--------------3-3---2----------|
D |-----------3-3-------------|-------3-3-3-------------------|
A |----3-3-3------------------|-------------------------------|
E |---------------------------|-------------------------------|


E |---------------------------|-------------------------------|
B |---------------------------|-------------------------------|
G |------------------3--4-(4)-|-------------------------------|
D |-----------3^p^3-----------|-------------------------------|
A |----3^p^3------------------|-------------------------------|
E |---------------------------|-------------------------------|

Comments