Misc Traditional - Hatikva Israeli National Anthem Chords & Tabs

 

Hatikva Israeli National Anthem Chords & Tabs

Misc Traditional Chords & Tabs

Version: 3 Type: Tab 0 ratings
1 star 2 stars 3 stars 4 stars 5 stars
comments

Hatikva Israeli National Anthem Tab

This is the more correct tab, since all of the ones on the internet are wrong.

Part 1, play Twice

e|--------------------------------------------|
B|-------------------------------------13-----|
G|-----5--7--8--10--12--12--13--12--13----12--|
D|--------------------------------------------|
A|--------------------------------------------|
E|--------------------------------------------|

e|-----------------------------------------|
B|-----------------------------------------|
G|--10--10--10--8--8--7--5--7-8--5---------|
D|-----------------------------------------|
A|-----------------------------------------|
E|-----------------------------------------|




-Chorus-

First Part of Chorus, play Twice
[ Tab from: http://www.guitartabs.cc/tabs/m/misc_traditional/hatikva_israeli_national_anthem_tab_ver_3.html ]
e|-----------------------------------|
B|--0---13---13---13---11-13--11-9-8-|
G|-----------------------------------|
D|-----------------------------------|
A|-----------------------------------|
E|-----------------------------------|

Second part, play twice

e|-------------------------------------------------|
B|--11--11--11----------11--13--14--16--13--11--9--|
G|--------------8--8-------------------------------|
D|-------------------------------------------------|
A|-------------------------------------------------|
E|-------------------------------------------------|

e|----------------------------------------|
B|--11--11--11--9--9--8--6--8-9--6--------|
G|----------------------------------------|
D|----------------------------------------|
A|----------------------------------------|
E|----------------------------------------|

w00t this empty space is now taken my shimmy! :O
Comments