Misc Traditional - Happy Birthday Chords & Tabs

 

Happy Birthday Chords & Tabs

Misc Traditional Chords & Tabs

Version: 3 Type: Tab 7 ratings
1 star 2 stars 3 stars 4 stars 5 stars
comments

Happy Birthday Tab

Tab: Happy Birthday (darker version)
Tab'd by: Spike McAllister
----------------------------------------------------------
Comments: Sounds best when played with amp set like this:
(my amp settings MIGHT b different, but you should be 
able to figure out what the settings on your amp should be)
-----------------------------------------------------------
Overdrive: Yes
Gain: 5 (half)
Treble: 10 (full)
Bass: 10 (full)
Volume: doesn't matter

-------------|-------------|---------------|-----------------
-------------|-------------|---------------|-----------------
---------5-4-|---------7-5-|-----9-5-5-4-2-|-10-10-9-5-7-5---
---------5-4-|---------7-5-|-----9-5-5-4-2-|-10-10-9-5-7-5---
-5-5-7-5-----|-5-5-7-5-----|-5-5-----------|-----------------
-5-5-7-5-----|-5-5-7-5-----|-5-5-----------|-----------------
[ Tab from: http://www.guitartabs.cc/tabs/m/misc_traditional/happy_birthday_tab_ver_3.html ]
Comments