Misc Traditional - Hall Of The Mountian King Chords & Tabs

 

Hall Of The Mountian King Chords & Tabs

Misc Traditional Chords & Tabs

Version: 1 Type: Bass Tab 0 ratings
1 star 2 stars 3 stars 4 stars 5 stars
comments

Hall Of The Mountian King Bass Tab

this song is pretty kool 4 begginers, and its a good thing to learn its a
pretty sweet song enjoy! if u think its wrong e-mail me even tho i kno its not. (emo_kid456@hotmail.com)

    Intro
G/-------------------/-----------------/
D/-------------------/----------2-0---0/(let ring)
A/------0-2-2-1-1-0-0/-----0-2-2---2-2-/ 2x
E/-0-2-3---3---2---1-/0-2-3---3-----3--/
[ Tab from: http://www.guitartabs.cc/tabs/m/misc_traditional/hall_of_the_mountian_king_btab.html ]
   Middle
G/-------------------------/---------------------/
D/----1-2-4-1-4-5-2-5-4-1-4/----1-2-4-1-4-5-2-5-4/(let ring)
A/-2-4---------------------/-2-4-----------------/ 2x
E/-------------------------/---------------------/

   FINISH
G/-------------------/-----------------/
D/-------------------/----------2-0---0/(let ring)
A/------0-2-2-1-1-0-0/-----0-2-2---2-2-/ 
E/-0-2-3---3---2---1-/0-2-3---3-----3--/

G/-------------------/-------------------/
D/-------------------/----------2-1-2-4-2/(let ring)
A/------0-2-2-1-1-0-0/-----0-2-2---2-----/
E/-0-2-3---3---2---1-/0-2-3---3----------/
Comments