Misc Traditional - Greensleeves Chords & Tabs

 

Greensleeves Chords & Tabs

Misc Traditional Chords & Tabs

Version: 2 Type: Tab 4 ratings
1 star 2 stars 3 stars 4 stars 5 stars
comments

Greensleeves Tab

   
Standard Tuning - E A D G B E

                                  Greensleeves
                                   Traditional

|---------------0---1---0--------------|----------------------------------|
|-------1---3---------------3---0------|-------0---1-------------------0--|
|---2-----------0-----------0---0---0--|---2---0-------2---2---1---2---1--|
|-------------------------------0---0--|-------0---2----------------------|
|-------0---2---3-------3---2-------2--|-----------0-------3--------------|
|--------------------------------------|-------------------------------0--|


|-----------------------0---1---0--|----------------------------------|
|---------------1---3--------------|---3---0-----------0---1---0------|
|---1-------2-----------0----------|---0---0---0---2---0-----------2--|
|-------2--------------------------|-------0---0-------0---2----------|
|---------------0---2---3-------3--|---2-------2-----------0----------|
|-------0--------------------------|----------------------------------|

[ Tab from: http://www.guitartabs.cc/tabs/m/misc_traditional/greensleeves_tab_ver_2.html ]
|-----------------------3---3---2--|---0------------------------------|
|-----------------------1---1------|---1---3---0-----------0---1------|
|---1-------1---2---2---0---0------|---0---0---0---0---2---0-------2--|
|---0---4---------------2---2------|-----------0---0-------0---2------|
|---------------3---0--------------|-------2-------2-----------0------|
|---0------------------------------|----------------------------------|


|---------------------------3---3--|---2---0--------------------------|
|---------------0-----------1---1--|-------1---3---0-----------0---1--|
|---2---1---2---1---1-------0---0--|-------0---0---0---0---2---0------|
|-----------------------2---2---2--|---------------0---0-------0---2--|
|---3------------------------------|-----------2-------2-----------0--|
|---------------0-------0----------|----------------------------------|


|--------------------------------------|
|----0---------------------------------|
|---------2----1---------1----2----2---|
|--------------0----4------------------|
|-----------------------------3----0---|
|--------------0-----------------------|



Comments