Misc Traditional - Greensleeves Correct Easy Chords & Tabs

 

Greensleeves Correct Easy Chords & Tabs

Misc Traditional Chords & Tabs

Version: 1 Type: Tab 2 ratings
1 star 2 stars 3 stars 4 stars 5 stars
comments

Greensleeves Correct Easy Tab

Greensleeves the correct version!!!~~~~~

e--------------0--1-0-----------------------------------------------------------
b------1--3--------------3--0---------0--1-----------------0-----------------
g--2-----------------------------0----2---------2--2--1--2------1-----------
d-----------------------------------------------------------------------2--------
a---------------------------------------------------------------------------------
e---------------------------------------------------------------------------------

[ Tab from: http://www.guitartabs.cc/tabs/m/misc_traditional/greensleeves_correct_easy_tab.html ]
e--------------0--1-0-----------------------------------------------------------
b------1--3--------------3--0----------0---1---0-----------------------------
g--2-----------------------------0---2---------------2--1-------1--2--2------
d--------------------------------------------------------------4-----------------
a---------------------------------------------------------------------------------
e---------------------------------------------------------------------------------


e--3---3--2--0-----------------------------------------------
b------------------3--0----------0--1------------------0-------
g--------------------------0--2---------2--2--1--2-------1------
d-------------------------------------------------------------2---
a-----------------------------------------------------------------
e-----------------------------------------------------------------


e--3---3--2--0---------------------------------------------------
b------------------3--0----------0--1--0------------------------
g--------------------------0--2-------------2--1-------1--2--2--
d----------------------------------------------------4------------
a------------------------------------------------------------------
e------------------------------------------------------------------

this is the correct and easy version of greensleeves. if u want you can request
a harder version just email me at ninethousandmiles@hotmail.com. if there 
is anything u wanna add...email me. thanks and have fun!
Comments