Misc Traditional - Greensleeves Chords & Tabs

 

Greensleeves Chords & Tabs

Misc Traditional Chords & Tabs

Version: 2 Type: Bass Tab 0 ratings
1 star 2 stars 3 stars 4 stars 5 stars
comments

Greensleeves Bass Tab

   
Enjoy tabbed this by ear tried to make a simpler version
 
Tabbed by: Ross Laughlan
E-mail: ross_laughlan81@hotmail.com

Tuning:E,A,D,G Standard Tuning

G|--0-5--7-9-10-9-7--4--0--|--0-4--5--5--4-2-1--2--4--1------|
D|-------------------------|-----------------------------2---|
A|-------------------------|---------------------------------|
E|-------------------------|---------------------------------|
[ Tab from: http://www.guitartabs.cc/tabs/m/misc_traditional/greensleeves_btab_ver_2.html ]
G|--0-5--7-9-10-9-7--4--0--|--0-4--5--4-2-1-----1--2--2------|
D|-------------------------|-----------------2---------------|
A|-------------------------|---------------------------------|
E|-------------------------|---------------------------------|

G|--12--12--10-9-7--4--0---|--0-4--5--4--2-1--2-4--1---------|
D|----------------------------------------------------2------|
A|-----------------------------------------------------------|
E|-----------------------------------------------------------|

G|--12--12--10-9-7--4--0---|--0-4--5--4--2-1--1--2--2--------|
D|------------------------------------------2----------------|
A|-----------------------------------------------------------|
E|-----------------------------------------------------------|

Comments