Misc Traditional - Finland National Anthem Chords & Tabs

 

Finland National Anthem Chords & Tabs

Misc Traditional Chords & Tabs

Version: 1 Type: Tab 0 ratings
1 star 2 stars 3 stars 4 stars 5 stars
comments

Finland National Anthem Tab

   
Start tuning E,A,D,G,B/H,E

This is a National Anthem Of Finland called "Maamme"

Tabber Joel R. (Jopeli)


e|----------------5~---------------------------|
B|1--------6-8---------6---8-6-5-6-------------|
G|--2-3-5~------5--------7---------------------|
D|---------------------------------------------|
A|---------------------------------------------|
E|---------------------------------------------|

[ Tab from: http://www.guitartabs.cc/tabs/m/misc_traditional/finland_national_anthem_tab.html ]
e|--3-------------------------------------------|
B|----6-5-3-------3-----------------------------|
G|5---------5-3-2---5---------------------------|   2x
D|----------------------------------------------|
A|----------------------------------------------|
E|----------------------------------------------|


e|------------3-5------------------------------|
B|--6-------6-----6---8-6-5-6------------------|
G|5---5---5---------7--------------------------|
D|------7--------------------------------------|
A|---------------------------------------------|
E|---------------------------------------------|
Comments