Misc Traditional - El Testamento De Amelia Chords & Tabs

 

El Testamento De Amelia Chords & Tabs

Misc Traditional Chords & Tabs

Version: 1 Type: Tab 0 ratings
1 star 2 stars 3 stars 4 stars 5 stars
comments

El Testamento De Amelia Tab

El Testamento De Amelia
Traditional

Standard Tuning

Slowly and with expression

|-----------|-----------|--0--------|-----------|-----1--1--|--1--3-----|
|-----------|--1-----3--|--1--------|--1--------|--3--------|--0------3-|
|--2--2--2--|--2--------|--2--------|--2--------|--2--------|--0--------|
|-----------|--3--------|-----------|--2--------|--3--------|-----------|
|-----------|-----------|-----------|--0--------|-----------|-----------|
|-----------|-----------|-----------|-----------|-----------|-----------|



 
|--0--------|--0--------|--0--------|--0-----1--|-----------|-----------|
|--0--------|--0--------|--1--1--3--|--2--------|--3--------|--1--------|
|--0--------|--1--------|--2-----1--|--0--------|--2--------|--2--------|
|--2--------|--0--------|--2--------|-----------|--3--------|--2--------|
|--3--------|--2--------|--0--------|-(0)-0-----|-(0)-------|-(0)-------|
|-----------|--0--------|-----------|-----------|-----------|-----------|


[ Tab from: http://www.guitartabs.cc/tabs/m/misc_traditional/el_testamento_de_amelia_tab.html ]
							      	|-B1-|
|------------|-----------|--------0--|--------0--||-----------|-----------|
|-----1--0-1-|--3-----1--|-----1-----|-----1-----||.----------|--1-----3--|
|--2---------|--1--------|--2--------|--2--------||--2--2--2--|--2--------|
|--3---------|--2--------|-----------|-----------||-----5--4--|--3--------|
|------------|-----------|--0--------|-----------||.-0--------|-----------|
|------------|-----0-----|-----------|--0--------||-----------|-----1-----|



			      |B1|
|--0--------|-----------|----0-1--1--|--1--0-1-3---|--0--------|--0-----------|
|--1--1--0--|--1--------|--3------1--|--0--------3-|--0--0-----|--0-----------|
|--2--2--1--|--2--------|--2------2--|--0----------|--0-----0--|--1-----------|
|-----------|--2-----2--|--3------0--|-------------|--2--------|--0--2-0------|
|--0--------|--0--3-----|------------|-------------|--3--------|--2------3-2--|
|--------0--|-----------|--1---------|--3----------|-----------|--0-----------|




|--0--------|--0---3p1--|-----------|--0--------|------------|--------0---|
|--1--1--3--|--2-----2--|--3--------|--1--------|-----1--0-1-|--3-----1-0-|
|--4--2--1--|--0-----0--|--2--------|--2--------|--2--2------|--1---------|
|--2--------|-----------|--3--2--0--|-----------|--1--1------|--2---------|
|--0--------|-(0)-0-----|--0--------|--3--2--0--|------------|------------|
|-----------|-----------|-----------|-----------|--1---------|-----0------|




|--------0--|--5--------||
|-----1--1--|--5-------.||
|--2--2--2--|--5--------||
|-----2-----|-----------||
|--0--------|-(0)--.||
|-----------|-----------||
Comments