Misc Traditional - Du Gammla Du Fria Chords & Tabs

 

Du Gammla Du Fria Chords & Tabs

Misc Traditional Chords & Tabs

Version: 1 Type: Tab 0 ratings
1 star 2 stars 3 stars 4 stars 5 stars
comments

Du Gammla Du Fria Tab

The swedish National song. "Du Gammla du fria"

E------------------------------------------------------------|
B------------------------------------------------------------|
G--2-2----------0-2-2-0--------------------------------------|
D-------3-3--3------------3-2--------------------------------|
A------------------------------------------------------------|
E------------------------------------------------------------|

E------------------------------------------------------------|
B------------------------------------------------------------|
G--0-0------0----2-------------------------------------------|
D-------2-3----2-------3---0---------------------------------|
A----------------------------------3-------------------------|
E------------------------------------------------------------|
[ Tab from: http://www.guitartabs.cc/tabs/m/misc_traditional/du_gammla_du_fria_tab.html ]
E------------------------------------------------------------|
B------------------------------------------------------------|
G----------0-------------------------------------------------|
D-----3-3---2-2-3-0----0----2--------------------------------|
A--3-------------------3-------------3-----------------------|
E------------------------------------------------------------|

E------------------------------------------------------------|
B------------------------------------------------------------|
G-------------0-2---3-2--0-----------------------------------|
D-----3-2-3------3------------3------------------------------|
A--3---------------------------------------------------------|
E------------------------------------------------------------|

E------------------------------------------------------------|
B------------------------------------------------------------|
G-------------0-2---3-2--0-----------------------------------|
D-----3-2-3------3------------3------------------------------|
A--3---------------------------------------------------------|
E------------------------------------------------------------|
Comments