Misc Traditional - Click Go The Shears Chords & Tabs

 

Click Go The Shears Chords & Tabs

Misc Traditional Chords & Tabs

Version: 1 Type: Tab 0 ratings
1 star 2 stars 3 stars 4 stars 5 stars
comments

Click Go The Shears Tab

   
#----------------------------------PLEASE NOTE--------------------------------#
#This file is the author's own work and represents their interpretation of the#
#song. You may only use this file for private study, scholarship, or research.#
#-----------------------------------------------------------------------------#

Date: Thu, 30 Apr 1998 10:22:29 +1000
From: Kevin Woodgate 
Subject: m/misc_traditional/click_go_the_shears.tab

>    Click Go The Shears         Australian Folk Song    
>
>Transcribed by K Woodgate
>
>Easy melody Version 
>
>The song can be found on records by the Bushwackers, Cobbers, William
Clauson 
>and many other Australian Folk records.
>
>
>Intro
>  A                          D  A7   D    D                     G
>e|-0----------|------------|------------||-------------|----------|------|
>B|----3--2--0-|------------|----3--3--3-||-------------|-----3--3-|-2--0-|
>G|------------|-2--0-------|------------||-------------|---2------|------|
>D|------------|-------4----|------------||-4--4--2---0-|-4--------|------|
>A|------------|----------2-|-0----------||-------------|----------|------|
>E|------------|------------|------------||-------------|----------|------|
>1                                
>   D                            E7                A7    D 
>e|--------------------|----------------|---------------|-------------|
>B|-----------0--------|----------------|---------------|-------------|
>G|-2-----2-------2----|----------------|---------------|-------------|
>D|--------------------|-4--0---2----2--|-4--2-----4----|-4-2---0---4-|
>A|--------------------|----------------|---------------|-------------|
>E|--------------------|----------------|---------------|-------------|
>1 Gra
[ Tab from: http://www.guitartabs.cc/tabs/m/misc_traditional/click_go_the_shears_tab.html ]
>   G                 A7             D        A7      D
>e|---------------|-----0--------|----------------|----------------|-------|
>B|---3---3---2---|-0-------3--2-|-0--------------|---------3---3--|-3--3--|
>G|-2-------------|--------------|---2---0--------|----------------|-------|
>D|---------------|--------------|------------4---|-2--0-----------|-------|
>A|---------------|--------------|----------------|----------------|-------|
>E|---------------|--------------|----------------|----------------|-------|
>1 A b
>Chorus
>   A7                   D      A      D   G                       D
>e|-0----0---------|-0----------2--------|---------------|-----------------|
>B|---------3---2--|-----3-------------3-|-0---0--2---3--|-2--0---------3--|
>G|----------------|---------------------|---------------|---------2-------|
>D|----------------|---------------------|---------------|-----------------|
>A|----------------|---------------------|---------------|-----------------|
>E|----------------|---------------------|---------------|-----------------|
> Click 
>   A        D                           G                        A7
>e|-----------------|----------------|--------------|-------------0------|
>B|-----------------|----------------|---3-----3--3-|-2-0-----3----------|
>G|-----------------|----------------|-2------------|--------------------|
>D|-2----2---4----4-|-4----2-0-----4-|--------------|--------------------|
>A|-----------------|----------------|--------------|--------------------|
>E|-----------------|----------------|--------------|--------------------|
>  quic
>                                 D    A7      D
>e|-----------------|----------------|--------------||
>B|--3--2---0-------|----------------|-3---3----3---||
>G|-------------2---|-0--------------|--------------||
>D|-----------------|----4----2---0--|--------------||
>A|-----------------|----------------|--------------||
>E|-----------------|----------------|--------------||
>   -es
>
Comments