Misc Traditional - Chute Chords & Tabs

 

Chute Chords & Tabs

Misc Traditional Chords & Tabs

Version: 1 Type: Tab 0 ratings
1 star 2 stars 3 stars 4 stars 5 stars
comments

Chute Tab

		"THE CHUTE SONG"  by Dan Maguire   9-24-01

This is a simple song, and is played with a slide!!!  And if you were
wondering, that's why it's called "The Chute Song", not "The Slide Song."
Play the song in the order it is written

/  = only slide up to, don't play note after
\  = only slide down to, don't play note after
 = slide back and forth but still staying on that fret
^^ = let ring
:  = play shorter and softer

				INTRO

1.  -----------2/5--------------2^^----------2-----2-----2-----2^^--|
2.  --5\2--2-2----------5\2--2-2--2^^--5\2--2:-2--2:-2--2:-2--2:-2^^--|
3.  ------------------------------2^^---------------------------------|
4.  ------------------------------------------------------------------|
5.  ------------------------------------------------------------------|
6.  ------------------------------------------------------------------|

				RIFF ONE

1.  --4--4-4-2--4-4-4-4--2--2--2-2--4----5\2--2-2-2------/12----|
2.  --2--2-2-2--4-4-4-4--2--O--O-O--2----5\2--2-2-2------/12----|
3.  ------------------------------------------------------------|
4.  ------------------------------------------------------------|
5.  ------------------------------------------------------------|
6.  ------------------------------------------------------------|

				RIFF THREE

1.  ----5---------------------5---------------------------------------|
2.  ---------5-5-5--5-5-----------5-5-5--5-5--------5---4/5---4/5^^---|
3.  --5:--------------------5:--------------------5:------------------|
4.  ------------------------------------------------------------------|
5.  ------------------------------------------------------------------|
6.  ------------------------------------------------------------------|

				SOLO
[ Tab from: http://www.guitartabs.cc/tabs/m/misc_traditional/chute_tab.html ]
1.  ----5/1O-1O-1O--8/1O--1O-1O--8/1O--1O-1O--8/1O--1O-1O-------------|
2.  --5----------------------------------------------------1O^^--\7-|
3.  ------------------------------------------------------------------|
4.  ------------------------------------------------------------------|
5.  ------------------------------------------------------------------|
6.  ------------------------------------------------------------------|

1.  ----------------5/1O-1O-1O--8/1O--1O-1O--8/1O--1O-1O--8/1O--1O-1O-|
2.  --5/7--6/7---\5---------------------------------------------------|
3.  ------------------------------------------------------------------|
4.  ------------------------------------------------------------------|
5.  ------------------------------------------------------------------|
6.  ------------------------------------------------------------------|

1.  -------------------7/12----|
2.  ----1O^^--\7--7-7----------|
3.  ---------------------------|
4.  ---------------------------|
5.  ---------------------------|
6.  ---------------------------|

				OUTRO

1.  --1-1--3-3----1-1--3-3----O-O--1-1----O-O--1-1----O--O^^----|
2.  --3-3--3-3----3-3--3-3----2-2--2-2----2-2--3-3----3--3^^----|
3.  --2-2--2-2----2-2--2-2----3-3--3-3----3-3--3-3----2--2^^----|
4.  --O-O--O-O----O-O--O-O----O-O--O-O----O-O--O-O----O--O^^----|
5.  ------------------------------------------------------------|
6.  ------------------------------------------------------------|

1.  --O-1----3-3-3-3----1-1-1-1----3-3-3-3----O^^----|
2.  --3-3----2-2-2-2----2-2-2-2----2-2-2-2----3^^----|
3.  --2-2----3-3-3-3----3-3-3-3----3-3-3-3----2^^----|
4.  --O-O----O-O-O-O----O-O-O-O----O-O-O-O----O^^----|
5.  -------------------------------------------------|
6.  -------------------------------------------------|

pez rocks, zeppelin rules
Comments