Misc Traditional - Charge Baseball Theme Chords & Tabs

 

Charge Baseball Theme Chords & Tabs

Misc Traditional Chords & Tabs

Version: 1 Type: Tab 1 rating
1 star 2 stars 3 stars 4 stars 5 stars
comments

Charge Baseball Theme Tab

   
e
b
g------------------
d-4----------------
a-2-4--6--8--------   Repeat faster each time 
e---2--4--6--------

                         THan play
[ Tab from: http://www.guitartabs.cc/tabs/m/misc_traditional/charge_baseball_theme_tab.html ]
e--------------------
b--------------------
g----------3-0-3-----        CHARGE!
d----0--4------------
a--------------------
e--4-----------------
               I know this is correct so don't bother with e-mails 
unless you just wanna chat guitar or bass salty_dog147@yahoo.com
Comments