Misc Traditional - Amazing Chords & Tabs

 

Amazing Chords & Tabs

Misc Traditional Chords & Tabs

Version: 1 Type: Tab 1 rating
1 star 2 stars 3 stars 4 stars 5 stars
comments

Amazing Tab

This is my first song but it's correct and easy. Play slow.



[ Tab from: http://www.guitartabs.cc/tabs/m/misc_traditional/amazing_tab.html ]
-----------------------------------------------------------------
-----0---0---------------0---0---3-0-3-3-0--------------------0--
---0---0---2-0---------0---0---2-----------0-----0-0--------0----
-0---------------2-0-0-----------------------0-2-----2-0-0--------
-----------------------------------------------------------------
-----------------------------------------------------------------


--------------------------------------------------------------------
-----0---0----------------------------------------------------------
--0----2------------------------------------------------------------
--------------------------------------------------------------------
--------------------------------------------------------------------
-------------------------------------------------------------------
Comments