Misc Traditional - Amazing Grace Chords & Tabs

 

Amazing Grace Chords & Tabs

Misc Traditional Chords & Tabs

Version: 7 Type: Tab 0 ratings
1 star 2 stars 3 stars 4 stars 5 stars
comments

Amazing Grace Tab

e|---------------------------------------|
B|---------------------------------------|
G|---------------------------------------|
D|-----------------------------2-7-------|
A|-0-5/9\5/9-7-5-----0-5/9\5/9-----------|
E|---------------7-5---------------------|
[ Tab from: http://www.guitartabs.cc/tabs/m/misc_traditional/amazing_grace_tab_ver_7.html ]
e|---------------------------------------|
B|---------------------------------------|
G|-4/7\4/7\4-0---------------------------|
D|-------------0-2-5-2-0---0-5/9\5/9-7-5-|
A|---------------------------------------|
E|---------------------------------------|


that's the simplest and most correct version i could come up with.
everyone else was a little off or too complicated. hope you enjoy!
-tim
Comments