Misc Traditional - Amazing Grace Chords & Tabs

 

Amazing Grace Chords & Tabs

Misc Traditional Chords & Tabs

Version: 1 Type: Tab 8 ratings
1 star 2 stars 3 stars 4 stars 5 stars
comments

Amazing Grace Tab

\"AMAZING GRACE\"
TABBED BY PAUL CAPPELLA

[ Tab from: http://www.guitartabs.cc/tabs/m/misc_traditional/amazing_grace_tab.html ]
1:------------------------------------------------------
2:----0---0-------------0---0---3---3---3---------------
3:--0---0---2-0-------0---0---2---4---4---4-------0-0---
4:0-------------2-0-0-----------------------5-0-2-----2-
5:------------------------------------------------------
6:------------------------------------------------------

1:------------------------
2:------0---0-------------
3:----0---0---2-0---------
4:0-0---------------------
5:------------------------
6:------------------------
Comments