Misc Themes - Terminator Theme Chords & Tabs

 

Terminator Theme Chords & Tabs

Misc Themes Chords & Tabs

Version: 1 Type: Tab 0 ratings
1 star 2 stars 3 stars 4 stars 5 stars
comments

Terminator Theme Tab

this is the coolest song on the face of the planet if you dont think so terminator will
ram your head into a pole. Anyway here it is. 
It starts off with a meaty as palm muted F power chord then goes
[ Tab from: http://www.guitartabs.cc/tabs/m/misc_themes/terminator_theme_tab.html ]
 e-------------------------------------------------------------------------
B--3-5-6--6-5------3-5-6-6p5--10-8--3-5-6--6-5-------------------
G---------------5---------------5---------------------5------------------
D----------------3--------------------------------------^4-3-0-3-3-2-0
A--------------------------------------------------------------------------
E--------------------------------------------------------------------------

Then it goes back to the meaty power chord loud as 
e-------------
B-------------
G-------------
D-3-3--3-3-3
A-3-3--3-3-3           this is repeated over
E-1-1--1-1-1

Tabbed by fergus HIndmarsh
Comments