Misc Themes - Superman The Movie Chords & Tabs

 

Superman The Movie Chords & Tabs

Misc Themes Chords & Tabs

Version: 1 Type: Tab 1 rating
1 star 2 stars 3 stars 4 stars 5 stars
comments

Superman The Movie Tab

Song: Superman: The Movie theme
Band: ?
Tabbed by: SpRiNgWaFfLe [springwaffle@comcast.net]

Intro
e-3-3---3-3--8------3-3---3-3--12-10-10-
b-----1--------8--------1---------------
g----------------5----------------------
d---------------------------------------
a---------------------------------------
e---------------------------------------

e-3-3---3-3--8------8-8-8--10-10-10--16-15----
b-----1--------8----9-9-9--11-11-11--------13-
g----------------5----------------------------
d---------------------------------------------
a---------------------------------------------
e---------------------------------------------
[ Tab from: http://www.guitartabs.cc/tabs/m/misc_themes/superman_the_movie_tab.html ]
That little part that builds up the song is just
one note. That's G. Hit a G chord a million or a
power chord or octaves or whatever. You can figure
out the rhythm yourself.

Main part
e||------------3--3-5-3-1-3-------------3--3-5-1---5-3-
b||.-------1-1----------------------1-1----------3-----
g||--0-0-0--------------------0-0-0--------------------
d||----------------------------------------------------
a||.---------------------------------------------------
e||----------------------------------------------------

e---------7--3--------7--3-------7-5-7-8-------------||
b-1-1-1-1-------1-1-1------1-1-1----------1-1-1-1-1-.||
g----------------------------------------------------||
d----------------------------------------------------||
a---------------------------------------------------.||
e----------------------------------------------------||
Comments