Misc Themes - Super Mario Brothers Chords & Tabs

 

Super Mario Brothers Chords & Tabs

Misc Themes Chords & Tabs

Version: 1 Type: Tab 6 ratings
1 star 2 stars 3 stars 4 stars 5 stars
comments

Super Mario Brothers Tab

Super Mario Bros. Main Theme
Tab by: Aaron Chan
Props to Mu-Hua for helping me figure out that last part

This is a little more complicated than some of the other tabs but it sounds a little smoother.  Just play it and see if you 
like how it sounds

e|-----------5-----------------------------7-------------
B|-7-7-7---7--------------------------7-10---8-10-7------
G|-------7---------7--------------------------------7-9-6
D|--------------7----7----9-11-10-9-7--------------------
A|---------------------9---------------------------------
E|-------------------------------------------------------

e|-----------------------------------------------10-10-10
B|10-9-8------------------------10-9-8-------------------
G|-------10-11--------7-7-9----------10-11---------------
D|----------------8-9--9---------------------------------
A|-------------------------------------------------------
E|-------------------------------------------------------
[ Tab from: http://www.guitartabs.cc/tabs/m/misc_themes/super_mario_brothers_tab.html ]
e|-------------------------------------------------------
B|10-9-8-------------------------------------------------
G|-------10-11--------7-7-9---10-9-7---------------------
D|----------------8-9--9-----------------7-7--0----------
A|-------------------------------------------------------
E|-------------------------------------------------------

e|-------------------------------------------------------
B|-----------7-------------------7-------------7---------
G|-7-7-7-7-9---7-------7-7-7-7-9-----7-7-7-7-9---7-------
D|---------------9-7-------------------------------9-7---
A|-------------------------------------------------------
E|-------------------------------------------------------

e|-----------5--------------------------7-7-7------------
B|-7-7-7---7--------7--------8-8-------------10-9-7------
G|-------7-----------7---------------6--------------7----
D|-------------7------7--8-9-----9-------------------9-7-
A|-------------------------------------------------------
E|-------------------------------------------------------

e|------------------------------------
B|-7--------8-8-------8-8-8-7---------
G|--7---------------6---------9-7-----
D|---7--8-9-----9----------------7----
A|---------------------------------5--
E|------------------------------------

I'm not gonna add that stuff about this being my first tab and dont blame me if I'm wrong crap.  Just play it
Comments