Misc Themes - Star Trek The Next Generation Picard S Flute Theme Chords & Tabs

 

Star Trek The Next Generation Picard S Flute Theme Chords & Tabs

Misc Themes Chords & Tabs

Version: 1 Type: Tab 0 ratings
1 star 2 stars 3 stars 4 stars 5 stars
comments

Star Trek The Next Generation Picard S Flute Theme Tab

   
Star Trek: The Next Generation
Picard's Flute Theme

The letters below are the notes (not chords).
Timing is not shown.

hoey187@hotmail.com
[ Tab from: http://www.guitartabs.cc/tabs/m/misc_themes/star_trek_the_next_generation_picard_s_flute_theme_tab.html ]
E|----------------0--5--2--0--7--5--3--2--0--------
B|----0-----3--3-----------------------------3--0--
G|-2-----2-----------------------------------------
D|-------------------------------------------------
A|-------------------------------------------------
E|-------------------------------------------------
   A  B  A  D  D  E  A  F# E  B  A  G  F# E  D  B


E|-------------10--10--12--17--14--12--19--17--15--14--12--10------
B|-10--12--10--------------------------------------------------12--
G|-----------------------------------------------------------------
D|-----------------------------------------------------------------
A|-----------------------------------------------------------------
E|-----------------------------------------------------------------
    A   B   A   D   D   E   A   F#  E   B   A   G   F#  E   D   B
Comments