Misc Themes - Simpsons Chords & Tabs

 

Simpsons Chords & Tabs

Misc Themes Chords & Tabs

Version: 1 Type: Tab 1 rating
1 star 2 stars 3 stars 4 stars 5 stars
comments

Simpsons Tab

Simpson’s theme
[ Tab from: http://www.guitartabs.cc/tabs/m/misc_themes/simpsons_tab.html ]
e------------------------------------------------------------------------------------------
b----------------------------3-------1----------------------------------------------------
g----------2--------4-----------------------2---------------------------------------------
D----3--------------------------------------------3-------1--------0----0---0---0---1--
A------------------------------------------------------------------------------------------
E------------------------------------------------------------------------------------------

e-------------------------------------------------------------------
b-------------------------------------------------------------------
g--------------------------------------------------------------------
D--0----0----0----0----1-----3-----5----5----5---5--------------
A-------------------------------------------------------------------
E--------------------------------------------------------------------

Don’t bother emailing me its not my address. Pretty simple but still cool. I did this without a guitar handy.
Comments