Misc Themes - Pink Panther Chords & Tabs

 

Pink Panther Chords & Tabs

Misc Themes Chords & Tabs

Version: 1 Type: Tab 1 rating
1 star 2 stars 3 stars 4 stars 5 stars
comments

Pink Panther Tab

Pink Panther

I was taught this by my music teacher so I think its right.
Its my first tab so here goes

E ---------------------------------------------------------------------
B ---------------------------------------------------------------------
G --------------------------------5-4--------4/3-2p0---------------
D --------------4-5-------4-5------------5-------------2p0h2------
A--4-5-6-7---------6-7---------------7-----------------------------
E ---------------------------------------------------------------------

E ---------------------------------------------------------------------
B ---------------------------------------------------------------------
G --------------------------------5-4—4/9/8----8------------------
D --------------4-5-------4-5--------5-------------9----------------
A--4-5-6-7---------6-7-------------------------------10------------
E ----------------------------------------------------------11--------

E ---------------------------------------------------------------------
B ---------------------------------------------------------------------
G -----------------------------5-4--------4/3-2p0------------------
D ----------4-5-------4-5------------5-------------2p0h2---------
A---6-7---------6-7---------------7--------------------------------
E --------------------------------------------------------------------
[ Tab from: http://www.guitartabs.cc/tabs/m/misc_themes/pink_panther_tab.html ]
E--2-----0----------------------------------------------------------------------------------------------------------
B--0-----0----------------------------------------------------------------------------------------------------------
G--2-----0---known as B7th-+-Em--9--7----------------------------------------------------------------------
D--1-----2--------------------------------------9p7/5-----------8/7------8/7------8/7-----8/7------------------
A--2-----2-------------------------------------------------7--------------------------------------------------------
E--0-----0----------------------------------------------------------------------------------------------------------

E---------------------------------------------------------------------------------------------------------------------
B---------------------------------------------------------------------------------------------------------------------
G--------------------------------------------------------------------------------------------------------------------
D--5-----------------------------------------------------------------------------------------------------------------
A------7p5h7--7-----7p5h7--7-----7p5h7--7-----B7th---------------------------------------------------------
E---------------------------------------------------------------------------------------------------------------------
hope u enjoy!
Comments