Misc Themes - Peanuts Theme Chords & Tabs

 

Peanuts Theme Chords & Tabs

Misc Themes Chords & Tabs

Version: 1 Type: Tab 1 rating
1 star 2 stars 3 stars 4 stars 5 stars
comments

Peanuts Theme Tab

This song is pretty easy to play so just have fun!




---------------------8-----8----------------------------------------)
------9----------11--9-----9--11----9-------11-----9-------9--------)
-----------------8-------------8-------------8----------------------)
-----10-----------------------------10-------------10------10-------)
--------------------------------------------------------------------)
--------------------------------------------------------------------)

[ Tab from: http://www.guitartabs.cc/tabs/m/misc_themes/peanuts_theme_tab.html ]
---------8----8-----------------------8----8------------------------)
---11----9----9--------------9----11--9----9--11----9-------9-------)
----8------------------------------8-----------8------------8-------)
-----------------------------10---------------------10--------------)
--------------------------------------------------------------------)
--------------------------------------------------------------------)


--------------------------------------------------------------------)
-----11-----11------------------------------------------------------)
------8------8------------------------------------------------------)
--------------------------------------------------------------------)
--------------------------------------------------------------------)
--------------------------------------------------------------------)

                    if you have any questions 
              e-mail me at MTllicaFn@aol.com
Comments